Song name
# A B C D E F G H I J K L M N O P Q R S T U V W X Y Z

The Blues Preachers - Louis Collins tab

LOUIS COLLINS
THE BLUES PREACHERS
NEXT STOP BEULAH LAND
---------------------
The Blues Preachers are doing a traditionnal pre war acoustic blues.
http://www.bluespreachers.com/
http://thebluespreachers.com/
-----------------------------

Standard Tuning

// CAPO IV \\

-------------

|-3-3---3/5-3---1---0-0-------3-------3---0-0-------0h3---0-------|
|-|-|---|---|---|---|-|---1---------------|-|---1---|---------3---|
|-|-|---|---|---|---|-|-------------------|-|-------|-------------|
|-|-2---0---|-2-|-0-|-2-----2-----2-----2-|-2-----2-|---2-------2-|
|-3---------3---|---3-----------3---------3---------3-------------|
|-----3---------3-------3-----------3---------3-------------3-----|

|---------------------0-----------------------------------------------|
|-1-1---3-1-------3---|-------1---0-------3---1-------1---1-------1---|
|-|-|---|-|---2-------|---0-------|---0-------|---0-------|---0-------|
|-|-3---3-|-3-------3-|-2-------2-|-0---------|-2-------2-|-2-------2-|
|-|-------|-----------3-----------|---------2-3-----------3-----------|
|-1---1---1-----1-----------3-----3-----3-----------3-----------3-----|

Just repeat...
Tap to rate this tab
 
# A B C D E F G H I J K L M N O P Q R S T U V W X Y Z