Song name
# A B C D E F G H I J K L M N O P Q R S T U V W X Y Z

The Bollox - Shinannagans tab

"Shinannagans" by The Bollox
Tabbed by Matt Benecke

The Bollox is the side project of Jason Devore from Authority Zero.  Scope out the 
band's websites:

http://thebolloxmusic.com/
http://www.myspace.com/thebolloxmusic
http://www.cdbaby.com/cd/bollox


Tuning: Standard (Eadgbe)

Guitar 1  (0:03 - 0:09)   (Riff 1)
e|---------------------------------------------------------------------------|
B|---------------------------------------------------------------------------|
G|---5h7s9--11p9h11-9--------------------------------------------------------| 2x
D|-7------------------12-10--9h10-9s7-5h7------------------------------------|
A|---------------------------------------------------------------------------|
E|---------------------------------------------------------------------------|


Guitar 1  (0:10 - 0:16)
e|------------------------------------------------------------------------------------|
B|------------------------------------------------------------------------------------|
G|---5h7s9--11p9h11-9------------------------5h7s9--11p9h11-9-------------------------| 
D|-7------------------12-10--9h10-9s7-5h7--7------------------12-10--9h10--9s7-5h7----|
A|------------------------------------------------------------------------------------|
E|------------------------------------------------------------------------------------|

Guitar 2  (0:10 - 0:16)

   v (Downstroke)            v             v                         v    v    v ^ v
e|-0-------------------------0-------------0-------------------------0----0----0-0-0---|
B|-1-------------------------1-------------1-------------------------1----1----1-1-1---|
G|-2-------------------------2-------------2-------------------------2----2----2-2-2---|
D|-2-------------------------2-------------2-------------------------2----2----2-2-2---|
A|-0-------------------------0-------------0-------------------------0----0----0-0-0---|
E|-------------------------------------------------------------------------------------|


Chords for remainder of song: Am, D, C, G  (Four beats per chord)  Over Riff 1

Am  x02210
D   xx0232
C/E 030210
G   320003



| /  slide up
| \  slide down
| h  hammer-on
| p  pull-off
| ~  vibrato
| +  harmonic
| x  Mute note
===========================================================================

====
Tap to rate this tab
 
# A B C D E F G H I J K L M N O P Q R S T U V W X Y Z