Song name
# A B C D E F G H I J K L M N O P Q R S T U V W X Y Z

The Bollox - Whiskey Wonderland tab

"Whiskey Wonderland" by The Bollox
Tabbed by Matt Benecke

The Bollox is the Irish Punk side project of Jason Devore from Authority Zero.  

Scope out the band's websites:

http://thebolloxmusic.com/
http://www.myspace.com/thebolloxmusic
http://www.cdbaby.com/cd/bollox


Intro  (0:00 - 0:10)

Guitar 1 (Electric) Plays Riff 1  1x

Guitar 2 (Electric) Plays Riff 2  2x

Guitar 3 (Acoustic) Plays Riff 3  2x


Riff 1

e|-----------------------------------------------------------------------|
B|-----------------------------------------------------------------------|
G|-----------------------------14----------------------------------------|
D|--------------14-16-16-16-16-------14-16-16-16-16-14-------------------|
A|-12-14-12--16-------------------16-------------------16-14---12-14-12--|
E|-----------------------------------------------------------------------|

e|---------------------------------------------------|
B|---------------------------------------------------|
G|---------------------------------------------------|
D|----14-16-16-16-16-14-----14-16-16-16-16-14--------|
A|-16--------------------16-------------------16-14--|
E|---------------------------------------------------|


Riff 2

   A5              D5              B5              E5
e|-------------------------------------------------------------------|
B|-------------------------------------------------------------------|
G|-----------------7-7-7-7-7-7-7-7-----------------9-9-9-9-9-9-9-9---|
D|-7-7-7-7-7-7-7-7-7-7-7-7-7-7-7-7-9-9-9-9-9-9-9-9-9-9-9-9-9-9-9-9---|
A|-7-7-7-7-7-7-7-7-5-5-5-5-5-5-5-5-9-9-9-9-9-9-9-9-7-7-7-7-7-7-7-7---|
E|-5-5-5-5-5-5-5-5-----------------7-7-7-7-7-7-7-7-------------------|


Riff 3

   A               D               Bm              E
e|-0-0-0-0-0-0-0-0-2-2-2-2-2-2-2-2-2-2-2-2-2-2-2-2-0-0-0-0-0-0-0-0---|
B|-2-2-2-2-2-2-2-2-3-3-3-3-3-3-3-3-3-3-3-3-3-3-3-3-0-0-0-0-0-0-0-0---|
G|-2-2-2-2-2-2-2-2-2-2-2-2-2-2-2-2-4-4-4-4-4-4-4-4-1-1-1-1-1-1-1-1---|
D|-2-2-2-2-2-2-2-2-0-0-0-0-0-0-0-0-4-4-4-4-4-4-4-4-2-2-2-2-2-2-2-2---|
A|-0-0-0-0-0-0-0-0-----------------2-2-2-2-2-2-2-2-2-2-2-2-2-2-2-2---|
E|-------------------------------------------------0-0-0-0-0-0-0-0---|


Verse 1 (0:10 - 0:26)

Guitars 1 & 2 Play Riff 2  3x

Guitar 3 Plays  Riff 3  3x


Verse 1 Lyrics

Well I've been lost and I've been found
And I've seen the Devil in the foreground
As the bottle cap turns and my fingers burn
We raise a glass for hope
And as the bottle smashes down and I turn around
The Devil he makes no sound (HEY HEY!)


Chorus 1 (0:26 - 0:36)

Guitars 1 & 2 Play Riff 2  2x

Guitar 3 Plays Riff 3  2x


Chorus 1 Lyrics

It's a long way home when you're walking all alone
Walkin' in a Whiskey Wonderland
And it's a long way back, better hope that you don't crack
Walkin' in a Whiskey Wonderland


Interlude 1 (0:37 - 0:47)

Guitar 1 Plays Riff 1 (Modified) 1x

Guitar 2 Plays Riff 2  2x

Guitar 3 Plays Riff 3  2x


Riff 1 (Modified)

e|-----------------------------------------------------------------------|
B|-----------------------------------------------------------------------|
G|-----------------------------------------------------------------------|
D|--------------14-16-16-16-16-14----14-16-16-16-16-14-------------------|
A|-12-14-12--16-------------------16-------------------16-14---12-14-12--|
E|-----------------------------------------------------------------------|

e|---------------------------------------------------|
B|---------------------------------------------------|
G|---------------------------------------------------|
D|----14-16-16-16-16-14-----14-16-16-16-16-14--------|
A|-16--------------------16-------------------16-14--|
E|---------------------------------------------------|


Verse 2 (0:48 - 1:03)

Guitars 1 & 2 Play Riff 2  3x

Guitar 3 Plays Riff 3  3x


Verse 2 Lyrics

Oh I've been high and I've been low
And I've seen the Devil, he's come and go
As the bottle cap turns and my fingers burn
I lift a glass for hope
And as the house burns down
And I turn around
The Devil he makes no sound (HEY HEY!)


Chorus 2 (1:04 - 1:24)

Guitars 1 & 2 Play Riff 2  4x

Guitar 3 Plays Riff 3  4x


Chorus 2 Lyrics


It's a long way home when you're walking all alone
Walkin' in a Whiskey Wonderland
And it's a long way back, better hope that you don't crack
Walkin' in a Whiskey Wonderland
And it's a long way home when you're walking all alone
Walkin' in a Whiskey Wonderland
And it's a long way back, better hope that you don't crack
Walkin' in a Whiskey Wonderland


Solo (1:25 - 1:35)

Guitar 1 Plays Solo Riff  4x

Guitar 2 Plays Riff 4  2x

Guitar 3 Plays Riff 4a 2x


Solo Riff

e|----------------------------------|
B|----------------------------------|
G|-9-9-9-9-9-9-9-9-7-7-7-6--6-7-7---|
D|----------------------------------|
A|----------------------------------|
E|----------------------------------|


Riff 4

   A5   D5   B5
e|------------------|
B|------------------|
G|------7~----------|
D|-7~---7~---9~-----|
A|-7~---5~---9~-----|
E|-5~--------7~-----|

(NOTE: In Riff 4 the B5 chord is held for four measures instead of two
like the A5 and D5)


Riff 4a

   A               D               Bm
e|-0-0-0-0-0-0-0-0-2-2-2-2-2-2-2-2-2-2-2-2-2-2-2-2-2-2-2-2-2-2-2-2---|
B|-2-2-2-2-2-2-2-2-3-3-3-3-3-3-3-3-3-3-3-3-3-3-3-3-3-3-3-3-3-3-3-3---|
G|-2-2-2-2-2-2-2-2-2-2-2-2-2-2-2-2-4-4-4-4-4-4-4-4-4-4-4-4-4-4-4-4---|
D|-2-2-2-2-2-2-2-2-0-0-0-0-0-0-0-0-4-4-4-4-4-4-4-4-4-4-4-4-4-4-4-4---|
A|-0-0-0-0-0-0-0-0-----------------2-2-2-2-2-2-2-2-2-2-2-2-2-2-2-2---|
E|-------------------------------------------------------------------|


Bridge (1:36 - 1:56)

Guitar 2 Plays Riff 4  4x*

Guitar 3 Plays Riff 4a 4x

*(NOTE: On the 4th play through of Riff 4, Guitar 2 will begin strumming 
the B5 chord in unison with Guitar 3's Bm)


Bridge Lyrics

And it's a long way home
And it's a long way home
And it's a long way home
And it's a long way home


Chorus 3 (1:57 - 2:17)

Guitars 1 & 2 Play Riff 2  4x

Guitar 3 Plays Riff 3  4x


Chorus 3 Lyrics

It's a long way home when you're walking all alone
Walkin' in a Whiskey Wonderland
And it's a long way back, better hope that you don't crack
Walkin' in a Whiskey Wonderland
And it's a long way home when you're walking all alone
Walkin' in a Whiskey Wonderland
And it's a long way back, better hope that you don't crack
Walkin' in a Whiskey Wonderland


Outro (2:18 - 2:35)

Guitars 1 & 2 Play Riff 2  2x, end on additional A5 strum

Guitar 3 Plays Riff 3  2x, end on additional A strum


Outro Lyrics

Yeah yeah yeah!
Yeah yeah yeah!
Yeah yeah yeah!
Yeah yeah yeah!
Yeah yeah yeah!
Yeah yeah yeah! 
Yeah yeah yeah! 
Yeah yeah walkin' in a whiskey wonderland




Tab Legend

| /  slide up
| \  slide down
| h  hammer-on
| p  pull-off
| ~  vibrato
| +  harmonic
| x  Mute note
| v  Downstroke
| ^  Upstroke
===============================================================================


Whiskey Wonderland Lyrics


Well I've been lost and I've been found
And I've seen the Devil in the foreground
As the bottle cap turns and my fingers burn
We raise a glass for hope
And as the bottle smashes down and I turn around
The Devil he makes no sound (HEY HEY!)

It's a long way home when you're walking all alone
Walkin' in a Whiskey Wonderland
And it's a long way back, better hope that you don't crack
Walkin' in a Whiskey Wonderland

Oh I've been high and I've been low
And I've seen the Devil, he's come and go
As the bottle cap turns and my fingers burn
I lift a glass for hope
And as the house burns down
And I turn around
The Devil he makes no sound (HEY HEY!)

It's a long way home when you're walking all alone
Walkin' in a Whiskey Wonderland
And it's a long way back, better hope that you don't crack
Walkin' in a Whiskey Wonderland
And it's a long way home when you're walking all alone
Walkin' in a Whiskey Wonderland
And it's a long way back, better hope that you don't crack
Walkin' in a Whiskey Wonderland

And it's a long way home
And it's a long way home
And it's a long way home
And it's a long way home

It's a long way home when you're walking all alone
Walkin' in a Whiskey Wonderland
And it's a long way back, better hope that you don't crack
Walkin' in a Whiskey Wonderland
And it's a long way home when you're walking all alone
Walkin' in a Whiskey Wonderland
And it's a long way back, better hope that you don't crack
Walkin' in a Whiskey Wonderland

Yeah yeah yeah!
Yeah yeah yeah!
Yeah yeah yeah!
Yeah yeah yeah!
Yeah yeah yeah!
Yeah yeah yeah! 
Yeah yeah yeah! 
Yeah yeah walkin' in a whiskey wonderland
Tap to rate this tab
 
# A B C D E F G H I J K L M N O P Q R S T U V W X Y Z