Song name
# A B C D E F G H I J K L M N O P Q R S T U V W X Y Z

The Bones - Flatline Fever tab

Intro:
e-----------------------------------------------------|
b-----------------------------------------------------|
g-----------------------------------------------------|
d------5---4--5--------5--4---5---3-------------------|
A------5---4--5--------5--4---5---1-------------------|
E------3-/-2-/3--------3-/2-/-3-/-1-------------------|

then

e-------------------------------------|
b-------------------------------------|
g-------------------8 ~ --10 ~ -------|
d--5--4---5---3-----8 ~ --10 ~ -------|
A--5--4---5---1-----6 ~ --8  ~ -------|
E--3-/2-/-3-/-1-----------------------|
                          ...
                          just the first time
Chorus:
e------------------------|
b------------------------|
g---5------8-------------|
d---5--6---8---8---------|
A---3--6---6---8---------|
E------4-------6---------|

e------------|
b------------|
g------------|
d--6 ~ ------|
A--6 ~ ------|
E--4 ~ ------|
under the solo (not quite sure) listen carefully:
e---------------------------------------|
b---------------------------------------|
g----------------5- ~ -3----------------|
d--5---4---5-----5- ~ -3---6---8-8------|
A--5---4---5-----3- ~ -1---6---8-8--15x-| back to chorus
E--3-/-2-/-3---------------4---6-6------|
                               . .
                               PM

Ending:

e--------------------------------------|
b--------------------------------------|
g--5------5-------8--------------------|
d--5------6-------8-------8-------6 ~ -|
A--3-8x---3--8X---6--8X---8--8X---6 ~ -|
E-------------------------6-------4 ~ -|

All my mistakes....

Hey guys this is my first tab so please rate.. I know there are maybe a few mistakes  
tha there are some explanations  missing but listen to it carefully and you will know what 
mean
Tap to rate this tab
# A B C D E F G H I J K L M N O P Q R S T U V W X Y Z