Song name
# A B C D E F G H I J K L M N O P Q R S T U V W X Y Z

The Bones - Screwed Blued Tattooed tab

INTRO
E--------------------------------------------|
B--------------------------------------------|
G--------------------------------------------| X4
D--99-11-99-11-9-12-14--99-11-99-11-9-14-12--|
A--77-7--77-7--7-10-12--77-7--77-7--7-12-10--|
E--------------------------------------------|


TWO WRONGS DONT MAKE ONE RIGHT...
E----------------------------------------------------------|
B----------------------------------------------------------|
G----------------------------------------------------------|
D--9999999-12121212121212---------------99-11-99-11-12-14--|
A--7777777-10101010101010-12121212-7777-77-7--77-7--10-12--|
E-------------------------10101010-5555--------------------|

E---------------------------------------------------------------------------|
B---------------------------------------------------------------------------|
G---------------------------------------------------------------------------|
D--9999999-12121212121212---------------99-11-99-11-12-14--99-11-99-11-14-12|
A--7777777-10101010101010-12121212-7777-77-7--77-7--10-12--77-7--77-7--12-10|
E-------------------------10101010-5555-------------------------------------|


AND YOU DO WHAT YOU DO...
E-------------------------------|
B-------------------------------|
G-------------------------------| X3
D--12-----99-11-99-11-99-11-99--|
A--10-12--77-7--77-7--77-7--77--|
E-----10------------------------|
                                |
E-------------------------------|
B-------------------------------|
G-------------------------------| X1
D--12---------------------------|
A--10-12--7777777-5-7-----------|
E-----10--5555555-3-5-----------|

E--------------------------------------------|
B--------------------------------------------|
G--------------------------------------------| X2
D--99-11-99-11-9-12-14--99-11-99-11-9-14-12--|
A--77-7--77-7--7-10-12--77-7--77-7--7-12-10--|
E--------------------------------------------|


SCREW YOU THERES...
E----------------------------------------------------------|
B----------------------------------------------------------|
G----------------------------------------------------------|
D--9999999-12121212121212---------------99-11-99-11-12-14--|
A--7777777-10101010101010-12121212-7777-77-7--77-7--10-12--|
E-------------------------10101010-5555--------------------|

E---------------------------------------------------------------------------|
B---------------------------------------------------------------------------|
G---------------------------------------------------------------------------|
D--9999999-12121212121212---------------99-11-99-11-12-14--99-11-99-11-14-12|
A--7777777-10101010101010-12121212-7777-77-7--77-7--10-12--77-7--77-7--12-10|
E-------------------------10101010-5555-------------------------------------|


AND YOU DO WHAT YOU DO...
E-------------------------------|
B-------------------------------|
G-------------------------------| X3
D--12-----99-11-99-11-99-11-99--|
A--10-12--77-7--77-7--77-7--77--|
E-----10------------------------|
                                |
E-------------------------------|
B-------------------------------|
G-------------------------------| X1
D--12---------------------------|
A--10-12--777777777777-5-7------|
E-----10--555555555555-3-5------|


[THIS PART PLAYS BEHIND THE SOLO]
E----------------------------------------------------------|
B----------------------------------------------------------|
G----------------------------------------------------------|
D--9999999-12121212121212---------------99-11-99-11-12-14--|
A--7777777-10101010101010-12121212-7777-77-7--77-7--10-12--|
E-------------------------10101010-5555--------------------|

E---------------------------------------------------------------------------|
B---------------------------------------------------------------------------|
G---------------------------------------------------------------------------|
D--9999999-12121212121212---------------99-11-99-11-12-14--99-11-99-11-14-12|
A--7777777-10101010101010-12121212-7777-77-7--77-7--10-12--77-7--77-7--12-10|
E-------------------------10101010-5555-------------------------------------|


AND YOU DO WHAT YOU DO...
E-------------------------------|
B-------------------------------|
G-------------------------------| X3
D--12-----99-11-99-11-99-11-99--|
A--10-12--77-7--77-7--77-7--77--|
E-----10------------------------|
                                |
E-------------------------------|
B-------------------------------|
G-------------------------------| X1
D--12---------------------------|
A--10-12--777777777777-7-2------|
E-----10--555555555555-5-0------|

E----------------------------------------------------------|
B----------------------------------------------------------|
G----------------------------------------------------------|
D--9--12-14--12-9--12-9-[BASS PLAYS TWICE]-12-9--13-9--12--|
A--7--10-12--10-7--10-7-[----------------]-10-7--11-7--10--|
E----------------------------------------------------------|

E--------------------------------------------|
B--------------------------------------------|
G--------------------------------------------| X2
D--99-11-99-11-9-12-14--99-11-99-11-9-14-12--|
A--77-7--77-7--7-10-12--77-7--77-7--7-12-10--|
E--------------------------------------------|


AND YOU DO WHAT YOU DO...
E-------------------------------|
B-------------------------------|
G-------------------------------| X3
D--12-----99-11-99-11-99-11-99--|
A--10-12--77-7--77-7--77-7--77--|
E-----10------------------------|
                                |
E-------------------------------|
B-------------------------------|
G-------------------------------| X1
D--12-----------------------9---|
A--10-12--777777777777-5-77-7---|
E-----10--555555555555-3-55-----|


SORRY IM NOT GOOD WITH SOLOS SO IVE LEFT THAT OUT BUT THE REST IS THERE ENJOY.
Tap to rate this tab
 
# A B C D E F G H I J K L M N O P Q R S T U V W X Y Z