Song name
# A B C D E F G H I J K L M N O P Q R S T U V W X Y Z

The Bones - Do You Wanna tab

Intro:

-------------------------------------|
-----------------------------------6-|
-------------2-0-2-0-2h3---2-0-2-0-7-|
-------------2-0-2-0-2h3---2-0-2-0-7-|
--0-0--0-0-0-------------0---------5-|
-------------------------------------|

------------------------------------|
--------------10-------12-----------|
---7-5-7-5------10-------12---------|
---7-5-7-5--------10-------12-------|
-5----------8-------10-------10-----|
------------------------------------| X3

Verse :
-0--0---------------1--1-------------|
-1---1--------------1--3-------------|
-2-----2---------2-----2-------------|
-2-------2-----3-------0-------------|
-0-0----------3----------------------|
------------1------------------------|

Chorus:(same as the intro)

-------------------------------------|
-----------------------------------6-|
-------------2-0-2-0-2h3---2-0-2-0-7-|
-------------2-0-2-0-2h3---2-0-2-0-7-|
--0-0--0-0-0-------------0---------5-|
-------------------------------------|

------------------------------------|
--------------10-------12-----------|
---7-5-7-5------10-------12---------|
---7-5-7-5--------10-------12-------|
-5----------8-------10-------10-----|
------------------------------------|
Tap to rate this tab
# A B C D E F G H I J K L M N O P Q R S T U V W X Y Z