Song name
# A B C D E F G H I J K L M N O P Q R S T U V W X Y Z

The Boneshakers - Cold Sweat tab

- Main lick; repeated throughout the song
- Mute other strings and rake across them as you play each note

~: vibrato

---------------------------------------------|
---------------------5~----------------------|
---------------------5~----------------------|
-------5--4----------------------------------|
---0----------0--------------4--5--7---------|
---------------------------------------------|

Chorus:

-----3-------5-----3-----          --------------------------------------------------------5-----|
-----3-------5-----3-----          --------------------------------------------------------5-----|
-----4-------5-----3-----  x4      --------------------------------------------------------6-----|
-----3-------4-----2-----          -------------------------------------------2--3--4------5-----|
-----5-------5-----3-----          ------2--3--4--5----------------------------------------7-----|
-----3-------------------          --------------------------------------------------------5-----|
		                                         I wake up                 In a cold sweat

This is my first tab, and my ear isnít perfect, so bear with me if this turns out to be 
I havenít tabbed out the lead guitar part yet, but I will! And Iíll amend this accordingly.

http://www.theboneshakersonline.com/
Tap to rate this tab
# A B C D E F G H I J K L M N O P Q R S T U V W X Y Z