Guitaretab - guitar tabs
Song name
# A B C D E F G H I J K L M N O P Q R S T U V W X Y Z

The Books - Motherless Bastard tab

http://www.thebooksmusic.com/

"Mommy Daddy! Mommy Daddy!"
"You have no mother or father."

Drop D Tuning.

E|------3--------3------3-3------3-3-----3-3-----3-3---|
B|------3-3------3-3----3------3-------3-------3-------|
G|----0--------0--------0-------0-------0-------0------|
D|-----------------------------------------------------|
A|------------------------------------------0-2--------|
D|0-5-------4-------4-2-----0-5-------5----------------|

E|-----3-3-------3-3------3-3-----3-3-----3-3-----3-3--|
B|-----3---------3--------3-------3-------3-------3----|
G|-----0---------0--------0-------0-------0-------0----|
D|-2-0-------------------------------------------------|
A|---------0-2-3-----2-0------0-0-----0-0-----0-0------|
D|-----------------------------------------------------|
[ Tab from: http://www.guitaretab.com/t/the-books/90244.html ]
E|-------3-3-----------3-3-----3-3-----3-3----3-3------|
B|-------3-------------3-------3-------3------3--------|
G|-------0----0-0-0----0-------0-------0------0--------|
D|-----------------------------------------------------|
A|-2-0-------0-2-0---3-----3-3-----3-3-----3-3---------|
D|-----5-----------5-----------------------------------|

E|-----------------3-3----3-3-----3-3-----3-3-----------|
B|-----------------3------3-------3-------3-------------|
G|--0----0---------0------0-------0-------0----0----0---|
D|-2-0----------------------------------------2-0-------|
A|--------2--0-2-3----3-3-----3-3-----3-3-------------2-|
D|------5------------------------------------------5----|

E|-----3-3-----3-3-----3-3-----3-3--||
B|-----3-------3-------3-------3----||
G|--0--0-------0-------0-------0----||
D|----------------------------------||
A|-0--------------------------------||
D|---5-----5-5-----5-5-----5-5------||

Repeat that for the whole song.

I recommend thumbing the bass notes while strumming the higher chord.
Related for Motherless Bastard tab