Song name
# A B C D E F G H I J K L M N O P Q R S T U V W X Y Z

The Booze - The Next Train tab

Intro:
   Ab                Bbm               Bbm               Ab
|-------------------------------------------------------------------|
|--11/13-9-----9-----11/13-9-----9-----11/13-9-----9-----11--9------|
|-----------10---10-----------10---10-----------10---10-------------|
|-------------------------------------------------------------------|
|-------------------------------------------------------------------|
|-------------------------------------------------------------------|

Rhythm Guitar

Verse 1:
  Ab                              Bbm
I don't know why I wake up in the morning
     Bbm                            Ab 
With nobody at my side that I wanna wake for
      Ab                                 Bbm
And I don't believe that you would come around the way you do
Bbm                         Ab
If I didn't need someone to stay for

PreChorus:
    Bbm                            D#
Now I can never stay for long like everybody else
    Cm                           Fm
But I don't wanna leave you all alone and by yourself

Chorus:
Bbm           Cm                 Fm (Riff 1)
I'll be on the next train out to see you
Bbm           Cm                 Ab (intro)
I'll be on the next train out to see you

(Intro)

Verse 2:
       Ab                           Bbm
You're telling me to move apart and separate from you
   Bbm                           Ab
To separate from you, if I would move apart
      Ab                                 Bbm
Cause you don't wanna break my heart the way you think they do
    Bbm                                  Ab
The way you think they do, If they could break my heart

PreChorus
    Bbm                          D#
Now I can't sing a blues for anybody on the street
    Cm                               Fm
And I aint like those other guys you hang around or meet

Chorus:
Bbm           Cm                 Fm (Riff 1)
I'll be on the next train out to see you
Bbm           Cm                 Ab
I'll be on the next train out to see you


Solo: (same chords as intro)

|-----------------------------------------------------------------|
|--------13------13-----------------------------15-15/16-13-------|
|---13h15---13h15---13h15p13------13h15p13------15-15/17-13-------|
|----------------------------13h15--------15----------------------|
|-----------------------------------------------------------------|
|-----------------------------------------------------------------|

|-----------------------------------------------------------------|
|---------------------15-15/16-13--------------------15--13-------|
|--------13h15p13-----15-15/17-13-------13h15p13-----15--13-------|
|---13h15--------15----------------13h15--------15----------------|
|-----------------------------------------------------------------|
|-----------------------------------------------------------------|

|-------------16------16------16h20p16h18p16----18-18/20-16-------|
|--14/16-16h18---16h18---16h18--------------18--18-18/21-16-------|
|-----------------------------------------------------------------|
|-----------------------------------------------------------------|
|-----------------------------------------------------------------|
|-----------------------------------------------------------------|

|---16h18p16----------18-18/20-16---16----------------------------|
|-----------18p16-----18-18/21-16---------16----------------------|
|----------------17--------------------17----15b17r15-13----------|
|-----------------------------------------------------------------|
|-----------------------------------------------------------------|
|-----------------------------------------------------------------|



  Ab                                  Bbm
I heard today that you were gonna get married 
        Bbm                      Ab
To that boy you met out in San Diego
    Ab
And all your friends they say 
             Bbm                
"Oh she's so happy, oh she's so happy,
                   Ab
You really oughta see her sometime"

Pre Chorus:
    Bbm                              D#
Now I don't mope around the way that you think I do
    Cm                            Fm
And I don't need no sympathy from anyone of you

Chorus:
Bbm           Cm                 Fm (Riff 1)
I'll be on the next train out to see you 
Bbm           Cm                 Fm (hold)
I'll be on the next train out to see you

Outro:
Ab    Fm    Ab
Bbm    D#    Fm


Lead Guitar:
All Verses:

|----44x4------------------66x6------------------66x6-------------------|
|----44x4------------------66x6------------------66x6-------------------|
|----55x5------------------66x6------------------66x6------8-8h10p8-----|
|----66x6------------------88x8------------------88x8--8h10-------------|
|----66x6-----6-6h8p6------88x8-----6-6h8p6------88x8-------------------|
|--4-44x4--6h8-------8-6-6-66x6--6h8-------8-6-6-66x6-------------------|

|-----------44x4-----------------------|
|-----------44x4-----------------------|
|-----------55x5-----------------------|
|--10p8-8---66x6-----------------------|  X2
|-----------66x6--6/8-6-3--------------|
|---------4-44x4-----------------------|

Same Chords as Pre Chorus & Chorus

Riff 1:
|------------------|
|------------------|
|--10p8-8----------|
|---------10p8-----|
|------------------|
|------------------|

Outro: (With the Fm from the last chord in last chorus)
 Fm
|--------------------44-44-------------------8-8---8-8-------------------|
|--------------------44-44-------------------9-9---9-9-------------------|
|--8h10-8------------55-55-------------------1010--1010--8h10-8----------|
|---------8h10p8-8---66-66-------------6-----1010--1010---------8h10p8---|
|--------------------66-66--------6-6h8--8---8-8---8-8-------------------|
|--------------------44-44-----6/8---------------------------------------|
                       (X3)                        (X3)

Then to the Ab and the last three chords.
Thats the song. I'm pretty sure theres not many mistakes,
But if you see any, please feel free to comment. much appreciated.
       Julian Ramos (Gtrfrk07)



Tap to rate this tab
 
# A B C D E F G H I J K L M N O P Q R S T U V W X Y Z