Song name
# A B C D E F G H I J K L M N O P Q R S T U V W X Y Z

The Bosshoss - Last Day Do Or Die tab

-------------------------------------------------------------------------------
			          Last Day (Do Or Die) - The BossHoss
-------------------------------------------------------------------------------
Tabbed by:Seemann3
Email:

Tuning: standard

Intro:

e|--7----5-----------------------|
B|------------8----5---~7--------|
G|-------------------------------|
D|-------------------------------|
A|-------------------------------|
E|-------------------------------|

6x, then

e|---------------------------------------------------------------------------|
B|--7--7^8-------8---~8---~7-------------------------------------------------|
G|---------------------------------------------------------------------------|
D|---------------------------------------------------------------------------|
A|---------------------------------------------------------------------------|
E|---------------------------------------------------------------------------|


intro/verse (play powerchords)

Em Em C B

play in verse 3 times

e|--7-8-7------------------------|
B|-------------------------------|
G|-------------------------------|
D|-------------------------------|
A|-------------------------------|
E|-------------------------------|

then again

e|---------------------------------------------------------------------------|
B|--7--7^8-------8---~8---~7-------------------------------------------------|
G|---------------------------------------------------------------------------|
D|---------------------------------------------------------------------------|
A|---------------------------------------------------------------------------|
E|---------------------------------------------------------------------------|

prechorus (the mission is decision...)

Em Em C G Em Em C C B

chorus

C D G Em   
G D Em Em
C D Em Em
Em x4






| /  slide up
| \  slide down
| h  hammer-on
| p  pull-off
| ~  vibrato
| ^  bending
| x  Mute note
===============================================================================
Tap to rate this tab
 
# A B C D E F G H I J K L M N O P Q R S T U V W X Y Z