Song name
# A B C D E F G H I J K L M N O P Q R S T U V W X Y Z

The Bosshoss - Sex On Legs tab

E--------------------------------------------|
B--------------------------------------------|
G--------------------------------------------|
D--------------------3----------3-2--2-3-----|
A--7-8-5--5-8-5-3--3---3--1-1-1--------------|
E--------------------------------------------|

E--------------------------------------------|
B--------------------------------------------|
G--------------------------------------------|
D-----------------3----------3--2------------|
A---5--5-8-5-3--3---3--1-1-1-----------------|
E--------------------------------------------|

E--------------------------------------------|
B--------------------------------------------|
G--------------------------------------------|
D--------------------3----------3-2--2-3-----|
A---5--5-8-5-3--3---3--1-1-1-----------------|
E--------------------------------------------|

E--------------------------------------------|
B--------------------------------------------|
G--------------------------------------------|
D-----------------3----------3--2------------|
A---5--5-8-5-3--3---3--1-1-1-----------------|
E--------------------------------------------|
Tap to rate this tab
# A B C D E F G H I J K L M N O P Q R S T U V W X Y Z