Song name
# A B C D E F G H I J K L M N O P Q R S T U V W X Y Z

The Boxer Rebellion - Watermelon tab

Help us improve GuitareTab! Take a short survey!
The Boxer Rebellion - Watermelon Tab
Submitted By: Z-Enzyme

Email: The.Z.Enzyme@gmail.com

I'm a begginner at that sort of things.

G1 Tuning: E A B G B e - FX: delay, reverb

G2 Tuning: C A B G B e - Low Distortion

G3 Tuning: C A B G B e - Dist, Tube Screamer?

-------------------------------------------------------------

G1

Intro:

G1 x 4
e-|---------------------------------------------|
B-|---------------------------------------------|
G-|---------------------------------------------|
D-|---------------------------------------------|
A-|---------------------------------------------|
E-|18---18---18-18-21---18---18---21---17-17-17-|


Then goes in the G2, G1 continue.

G2
e-|---------------------------------------------|
B-|---------------------------------------------|
G-|---------------------------------------------|
D-|---------------------------------------------|
A-|-----1--1--0--1-------------1-----0--1-------|
C-|0----------------2--3----3-----3--------3----|

Verse:

G2
e-|---------------------------------------------|
B-|---------------------------------------------|
G-|---------------------------------------------|
D-|---------------------------------------------|
A-|-----1--1--0--1-------------1-----0--1-------|
C-|0----------------2--3----3-----3--------3----|

    Inside I was restless...

Pre Chorus:

G1 and G2 continue.

 
e-|---------------------------------------------|-------...
B-|---------------------------------------------|-------...
G-|---------------------------------------------|-------...
D-|---------------------------------------------|-------...
A-|-----1--1--0--1-------------1-----0--1-------|-----1-...
C-|0----------------2--3----3-----3--------3----|0------...

G3 jumps in at the end of G2 verse. The |---| are the riffs

e-|---------------------------------------------|-------
B-|---------------------------------------------|-------
G-|---------------------------------------------|-------
D-|---------------------------------------------|-------
A-|---------------------------------------------|-------
C-|-------------------------------------5--5--5-|0--x---
   Inside... Outside...

Then the G3 pattern changes to go into Chorus:

G2
e-|--------------------------------------------|
B-|--------------------------------------------|
G-|--------------------------------------------|
D-|--------------------------------------------|
A-|-----1--1--0--1-------------1-----0--1------|
C-|0----------------2--3----3-----3--------3---|

G3 more less XD
e-|--------------------------------------------|
B-|--------------------------------------------|
G-|--------------------------------------------|
D-|--------------------------------------------|
A-|--------------------------------------------|
C-|--------------------3----3----5-----5--5--5-|

Chrous:


G1 and G3 go the same

G3X3
e-|---------------------------------------------|
B-|---------------------------------------------|
G-|---------------------------------------------|
D-|---------------------------------------------|
A-|-----1--1--0--1-----10----10----9----9--9--10|
C-|0--------------------------------------------|

Then the'res the bend at the end of the riff

e-|---------------------------------------------|
B-|---------------------------------------------|
G-|--------------------15 bend to 16------------|
D-|---------------------------------------------|
A-|-----1--1--0--1------------------------------|
C-|0--------------------------------------------|

Break:

This part is hard, I probably didn't get that right, but it's close.



G1 - NO IDEA reall,y that's why I left it as it was
Works fine in mixes.

e-|---------------------------------------------|
B-|---------------------------------------------|
G-|---------------------------------------------|
D-|---------------------------------------------|
A-|---------------------------------------------|
E-|18---18---18-18-21---18---18---21---17-17-17-|

G2

e-|------------------------------------------------|
B-|------------------------------------------------|
G-|------------------------------------------------|
D-|------------------------------------------------|
A-|------------------------------------------------|
C-|3--3--3--3--3--3--3--3--5--5--5--5--5--5--5--5--|

G3

e-|------------------------------------------------|
B-|------------------------------------------------|
G-|---5----4----4-----3----3-----------------------|
D-|3----3----------3----------3--6--6--3 slide 1---|
A-|------------------------------------------------|
C-|------------------------------------------------|

e-|------------------------------------------------|
B-|------------------------------------------------|
G-|---5----4----4-----3----3---15 bend to 17-------|
D-|3----3----------3-------------------------------|
A-|------------------------------------------------|
C-|------------------------------------------------|

And that's more less it. I guess...

Hope it works fine for you guys ass well.
Cheers,
Enzyme.
Related for Watermelon tab