Guitaretab - guitar tabs
Song name
# A B C D E F G H I J K L M N O P Q R S T U V W X Y Z

The Boxer Rebellion - All You Do Is Talk tab

All You Do Is Talk:

The intro is just these two notes played with some very strange
distortion/reverb/general fuzz

D|-9-7-

Then,the second guitar comes in over

e|-----------------------------------------------------------------|
B|--------------------------------------10-10-10-10-10-10-10-10-10-|
G|-7-7-7-7-7-7-7-7-7-7-7-6-6-6-6-6-(x4)-12-12-12-12-12-12-12-12-12-|
D|-5-5-5-5-5-5-5-5-5-5-5-5-5-5-5-5---------------------------------|
A|-----------------------------------------------------------------|
E|-----------------------------------------------------------------|

e|---------19------------------------------------------------------|
B|10-10-9--9-------10-10-10-10-10-10-12----------------------------|
G|12-12-12-12-(x3)-------------------------------------------------|
D|-----------------------------------------------------------------|
A|-----------------------------------------------------------------|
E|-----------------------------------------------------------------|

Chorus:

There's a second guitar under this after the initial two chords but
I couldn't work it out
[ Tab from: http://www.guitaretab.com/t/the-boxer-rebellion/169321.html ]
e|-----------------2-2-2-2-2-2-2-2-2-2-----------------------------|
B|-----------------2-2-2-2-2-2-2-2-2-2-----------------------------|
G|-----------------4-4-4-4-4-4-4-4-4-4-----------------------------|
D|-5-5-5-5-2-2-2-2-4-4-4-4-4-4-4-4-4-4-5-5-5-5-2-2-2-2-5-5-5-5-4-4-|
A|-5-5-5-5-2-2-2-2-2-2-2-2-2-2-2-2-2-2-5-5-5-5-2-2-2-2-5-5-5-5-4-4-|
E|-3-3-3-3-0-0-0-0-2-2-2-2-2-2-2-2-2-2-3-3-3-3-0-0-0-0-3-3-3-3-2-2-|

e|-----------------------------------------------------------------|
B|-----------------------------------------------------------------|
G|----4-4-4-4------------------------------------------------------|
D|4-4-4-4-4-4-2-2-2-2-5-5-5-5-4-4-4-4-2-2-2-2----------------------|
A|4-4-2-2-2-2-2-2-2-2-5-5-5-5-4-4-4-4-2-2-2-2----------------------|
E|2-2---------0-0-0-0-3-3-3-3-2-2-2-2-0-0-0-0----------------------|


Second verse and chorus are the same then there's this after the
second chorus:

e|-----------------------------------------------------------------|
B|--------------------------------------10-10-10-10-10-10-12-------|
G|-7-7-7-7-9-9-9-9-9-9-9-9-7-7-7-7-(x2)----------------------------|
D|-5-5-5-5-9-9-9-9-9-9-9-9-5-5-5-5---------------------------------|
A|-----------------------------------------------------------------|
E|-----------------------------------------------------------------|

Final chorus is just

e|-----------------2-2-2-2-2-2-2-2-2-2-----------------|
B|-----------------2-2-2-2-2-2-2-2-2-2-----------------|
G|-----------------4-4-4-4-4-4-4-4-4-4-----------------|
D|-5-5-5-5-2-2-2-2-4-4-4-4-4-4-4-4-4-4-5-5-5-5-2-2-2-2-|
A|-5-5-5-5-2-2-2-2-2-2-2-2-2-2-2-2-2-2-5-5-5-5-2-2-2-2-|
E|-3-3-3-3-0-0-0-0-2-2-2-2-2-2-2-2-2-2-3-3-3-3-0-0-0-0-|
Related for All You Do Is Talk tab