Song name
# A B C D E F G H I J K L M N O P Q R S T U V W X Y Z

The Boxer Rebellion - Cowboys Engines tab

track 9 of EXITS
tuning: standard

intro/verse:                       this part is easily heard
-10----6-8--10--------------------|
---10---------10--10-8-7-8--------|
----------------------------------|   play till chorus 0:42
----------------------------------|
----------------------------------|
----------------------------------|

chorus:  x4
--------------------------------------6-------|
------------------------8-10-6h8-10-6---10----|
----------------------------------------------|
-----12--12-----12--12------------------------|
---12---------10------------------------------|  on the 4th time don't play from the
-10----10---10----10--------------------------|                 first 8 on.

play verse till next chorus at 1:43

chorus same as first

bridge
at 2:38 lead guitar plays:  play while fast strumming
-10-10-10-10-11-10-10-8-8---------|
----------------------------------|
----------------------------------|
----------------------------------|
----------------------------------|
----------------------------------|
Tap to rate this tab
# A B C D E F G H I J K L M N O P Q R S T U V W X Y Z