Song name
# A B C D E F G H I J K L M N O P Q R S T U V W X Y Z

The Boxer Rebellion - Misplaced tab

The Boxer Rebellion - Misplaced

Beginning:
e|-------------------------------------------------------------------------------|
B|-------------------------------------------------------------------------------|
G|--12-12------------------------12-12---------13-13--12-12----------------------|
D|---------13-13--11-11--10-10----------13-13----------------13-13--11-11--10----|
A|-------------------------------------------------------------------------------|
E|-------------------------------------------------------------------------------|

Сontinuation:
e|---------------------------------------------------|
B|---------------------------------------------------|
G|--12-12---------13-13--12-12-----------------------|
D|---------13-13----------------13-13--11-11--10-10--| (12)
A|---------------------------------------------------|
E|---------------------------------------------------|

Sorry. This tab so awful.
Tap to rate this tab
 
# A B C D E F G H I J K L M N O P Q R S T U V W X Y Z