Song name
# A B C D E F G H I J K L M N O P Q R S T U V W X Y Z

The Boxer Rebellion - Never Knowing How Or Why tab

Help us improve GuitareTab! Take a short survey!
verse
c-------------------------------------------------------------------------|
g-------------------------------------------------------------------------|
e13-13-13-13-13-13-13-13-15-15-15-15-15-15-15-15--------------------------|
b-------------------------------------------------------------------------|
f-------------------------------------------------------------------------|
C-------------------------------------------------------------------------|


c-------------------------------------------------------------------------|
g15-15-15-15-15-17-17-15--------------------------------------------------|
e------------------------13-13-13-13-13-13-13-13-15-15-15-15-15-15-15-15--|
b-------------------------------------------------------------------------|
f-------------------------------------------------------------------------|
C-------------------------------------------------------------------------|


c-------------------------------------------------------------------------|
g-------------------------------------------------------------------------|
e13-13-13-13-13-13-13-13-13-13-13-13-13-13-13-13--------------------------|
b-------------------------------------------------------------------------|
f-------------------------------------------------------------------------|
C-------------------------------------------------------------------------|

CHORUS
c---------------------------------------------------------------------------|
g--------------------15-------------------17--------------------------------|
e----------------16-------------------18------------------------------------|
b-14h16p14---------13h14p13-------------------------------------------------|
f---------------------------------------------15h17-15-14-17-15h17-15-14-15-|
C---------------------------------------------------------------------------|


c--------------------------------------------------------------------------|
g-------------------15--------------------17-------------------------------|
e---------------16--------------------18-----------------------------------|
b-14h16p14---------13h14p13------------------------------------------------|
f-----------------------------------------------15h17-15-14-17-15h17-15-14-|
C--------------------------------------------------------------------------|

Coda

c--------------------------------------------------------------------------|
g-------------------------------17-17-17-----------------------------------|
e15-15-15-15-15-15-15--------------15-15-15-15-15-15-15-16-16-16-----------|
b--------------------------------------------------------------------------|
f--------------------------------------------------------------------------|
C--------------------------------------------------------------------------|

c--------------------------------------------------------------------------|
g-------------------------------17-17-19-----------------------------------|
e15-15-15-15-15-15-15--------------15-15-15-15-15-15-15-16-16-16-----------|
b--------------------------------------------------------------------------|
f--------------------------------------------------------------------------|
C--------------------------------------------------------------------------|

there is no boxer rebellion tabs anywhere so because there a kick ass band i thought they deserve one
Related for Never Knowing How Or Why tab