Song name
# A B C D E F G H I J K L M N O P Q R S T U V W X Y Z

The Bravery - Public Service Announcement tab

PUBLIC SERVICE ANNOUNCEMENT
The Bravery

Taken from the Island album The Bravery (2005)

Transcribed by: Damian Pamminger (TwitcheD_85@hotmail.com)

Standard tuning: E A D G B E

Rhy. Fig. 1
|-5--5--5--5--5--5--5--5--7--7--7--7--7--7--7--7--5--5--5--5--5--5--5--5----|
|-5--5--5--5--5--5--5--5--7--7--7--7--7--7--7--7--7--7--7--7--7--7--7--7----|
|-6--6--6--6--6--6--6--6--7--7--7--7--7--7--7--7--7--7--7--7--7--7--7--7----|
|-7--7--7--7--7--7--7--7--9--9--9--9--9--9--9--9--0--0--0--0--0--0--0--0----|
|---------------------------------------------------------------------------|
|---------------------------------------------------------------------------|

|-5--5--5--5--5--5--5--5----|
|-8--8--8--8--8--8--8--8----|
|-7--7--7--7--7--7--7--7----|
|-5--5--5--5--5--5--5--5----|
|---------------------------|
|---------------------------|

Lead part:
|-12------12------10------9------12------12------9------9---------|
|-----10------10------10-----10------10------10-----10-----10-----|
| ----------------------------------------------------------------|
| ----------------------------------------------------------------|
| ----------------------------------------------------------------|
| ----------------------------------------------------------------|
Tap to rate this tab
# A B C D E F G H I J K L M N O P Q R S T U V W X Y Z