Song name
# A B C D E F G H I J K L M N O P Q R S T U V W X Y Z

The Bravery - Hatefuck tab

-----------------------------------------------------------------------------
			     Hatefuck - The Bravery
-----------------------------------------------------------------------------
Tabbed by: FenderYK
Email: XXXXXXXXXX

Tuning: Standard

Hey I am new to Ultimate-Guitar and this is the first tab I have ever made :)
hopefully its pretty good.

"Hatefuck" is a new song by The Bravery from their new album "Stir the Blood"

Intro/Chorus (Guitar for Keyboard)
e|---------------15----15-17---14----14----12---12-15-----------------------|
B|---15-12-15-12----15------------15----15----14----------------------------|
G|-----------------------------------------------------------------------3X-|
D|--------------------------------------------------------------------------|
A|--------------------------------------------------------------------------|
E|--------------------------------------------------------------------------|

Intro (Comes in after Guitar 1 plays intro once)
e|----------------------------------------------------------------------------|
B|----------------------------------------------------------------------------|
G|--4-44444---12-1212121212---7-77777---6-66666-------------------------------|
D|--4-44444---12-1212121212---7-77777---6-66666---------------------------2X--|
A|--2-22222---10-1010101010---5-55555---4-44444-------------------------------|
E|----------------------------------------------------------------------------|

(Above riff is played lightly until the chorus)


Chorus
e|----------------------------------------------------------------------------|
B|----------------------------------------------------------------------------|
G|--4-44444---12-1212121212---7-77777-----------------------------------------|
D|--4-44444---12-1212121212---7-77777---7-77777---------------------------4X--|
A|--2-22222---10-1010101010---5-55555---7-77777-(Don't play the 4th time)-----|
E|--------------------------------------5-55555-------------------------------|

Play Chorus 2 more times

I have yet to figure the solo out.


| /  slide up
| \  slide down
| h  hammer-on
| p  pull-off
| ~  vibrato
| +  harmonic
| x  Mute note
=============================================================================
Tap to rate this tab
 
# A B C D E F G H I J K L M N O P Q R S T U V W X Y Z