Song name
# A B C D E F G H I J K L M N O P Q R S T U V W X Y Z

The Bravery - Tyrant tab

Okay this is my first time tabbing but im pretty sure this is it.

e|-------------10---10---------------10---10----|
B|----------------------------------------------|
G|-12-12-12-11----11---11-12-12-12-11---11---11-|
D|----------------------------------------------|
A|----------------------------------------------|
E|----------------------------------------------|

e|----------------------9---12----10--10--10--10|
B|-----------10-10----10--10--------------------|
G|-9-9-9-9-7---7--7-9-----------12--12--12--12--|
D|----------------------------------------------|
A|----------------------------------------------|
E|----------------------------------------------|

e|---10--10--10--10-10-10-10-9-9-9-----------------|
B|--------------------------------12-12-12-10-10-10|
G|-12--12--12--12----------------------------------|
D|-------------------------------------------------|
A|-------------------------------------------------|
E|-------------------------------------------------|

e|--------------------|
B|---10---------------|
G|-11---9-------------|
D|-----------11-12-9--|
A|--------------------|
E|--------------------|

Its a great song, email me if you have anychanges that sound better.
Markmarklar24@gmail.com
MROQ
Tap to rate this tab
 
# A B C D E F G H I J K L M N O P Q R S T U V W X Y Z