The Bravery - Believe tab

------------------------------------------------------------------------------
    Believe - The Bravery
-------------------------------------------------------------------------------
Tabbed by: g5nosc1
Email: gbrentc@gmail.com
Tempo: 168 Allegro 
Tuning: Standard EADGBE

Intro Riff
Guitar 2 
e|---------------------------------------------------------------------------|
B|---------------------------------------------------------------------------|
G|---------------------------------------------------------------------------|
D|---------------------------------------------------------------------------|
A|---6--4------------------4--4-------6--4------------------4--4-------------|
E|-------6--4--6---6--4--6--6---1-1-------6--4--6---6--4--6--6---1-1---------|

Guitar 1
e|---------------------------------------------------------------------------|
B|---------------------------------------------------------------------------|
G|---------------------------------------------------------------------------|
D|---------------------------------------------------------------------------|
A|---------------------------------------------------------------------------|
E|---------------------------------------------------------------------------|

Guitar 2 
e|---------------------------------------------------------------------------|
B|---------------------------------------------------------------------------|
G|---------------------------------------------------------------------------|
D|---------------------------------------------------------------------------|
A|---6--4------------------4--4-------6--4------------------4--4-------------|
E|-------6--4--6---6--4--6--6---1-1-------6--4--6---6--4--6--6---1-1---------|

Guitar 1 
*Accelerando throughout chord progression (eight notes)
*4 beats per chord for the first 2 chords and 8 beats for the 3rd chord
e|-------------9----------------8---------------11---------------------------|
B|-------------6----------------6---------------9----------------------------|
G|---------------------------------------------------------------------------|
D|---------------------------------------------------------------------------|
A|---------------------------------------------------------------------------|
E|---------------------------------------------------------------------------|

Guitar 2
e|---------------------------------------------------------------------------|
B|---------------------------------------------------------------------------|
G|---------------------------------------------------------------------------|
D|---------------------------------------------------------------------------|
A|---6--4------------------4--4-------6--4------------------4--4------(6)----|
E|-------6--4--6---6--4--6--6---1-1-------6--4--6---6--4--6--6---1-1---------|

Guitar 1
e|-------------9----------------8---------------11-------------------(11)\---|
B|-------------6----------------6----------------9--------------------(9)\---|
G|---------------------------------------------------------------------------|
D|---------------------------------------------------------------------------|
A|---------------------------------------------------------------------------|
E|---------------------------------------------------------------------------|


************************************

| /   slide up
| \   slide down
| h   hammer-on
| p   pull-off
| ~   vibrato
| +   harmonic
| x   Mute note
| b   Bend
| pb  Pre-bend
| br  Bend release
| pbr Pre-bend release
| brb Bend release bend

************************************
Tap to rate this tab
 
# A B C D E F G H I J K L M N O P Q R S T U V W X Y Z