Song name
# A B C D E F G H I J K L M N O P Q R S T U V W X Y Z

The Bravery - Ocean tab

I am pretty sure this is how it goes. I did this on acoustic though so it might be 
different on the electric. Chip in corrections if you are sure of it.
Baness.



First Solo:

E|--3--4-1--1-4-3--3-4-1--1----3--4------4-3--3-4--------------|
B|----------------------------------4--4----------4--4---------|
G|-------------------------------------------------------------|
D|-------------------------------------------------------------|
A|-------------------------------------------------------------|
E|-------------------------------------------------------------|


E|--3--4-1--1-4-6--6--8--8--11--11-9--8--6--8---8---8----------|
B|--------------------------------------------6---6---6--------|
G|-------------------------------------------------------------|
D|-------------------------------------------------------------|
A|-------------------------------------------------------------|
E|-------------------------------------------------------------|


Second Solo:

E|--3--4-1--1-4-3--3-4-1--1----3--4------4-3--3-4--------------|
B|----------------------------------4--4----------4--4---------|
G|-------------------------------------------------------------|
D|-------------------------------------------------------------|
A|-------------------------------------------------------------|
E|-------------------------------------------------------------|

E|--3--4-1--1-4------1-----------------------------------------|
B|--------------4--4---2--2-4-1--1-2----------1----------------|
G|-----------------------------------1----1-3-----1------------|
D|--------------------------------------3-------------3--------|
A|-------------------------------------------------------------|
E|-------------------------------------------------------------|
Tap to rate this tab
# A B C D E F G H I J K L M N O P Q R S T U V W X Y Z