Song name
# A B C D E F G H I J K L M N O P Q R S T U V W X Y Z

The Bravery - Out Of Line tab

Help us improve GuitareTab! Take a short survey!
Tabbed by: Jozzy Wikked

http://www.MySpace.com/JozzyWikked

This is the song Out Of Line made by CRASHDET..
It's not the whole song but most of it..

Intro

|-------------------------------------------------|
|-------------------------------------------------|
|-------------------------------------------------|
|--------------7-7-7--5-5-5-5-5--7-7-7--3-3-3-3-3-|
|-------3------7-7-7--5-5-5-5-5--7-7-7--3-3-3-3-3-|
|-0-3-5---5-3--5-5-5--3-3-3-3-3--5-5-5--1-1-1-1-1-|

|----------------------------|
|----------------------------|
|----------------------------|
|-7-7-7--5-5-5-5-5--3--7--5--|
|-7-7-7--3-3-3-3-3--3--7--5--|
|-5-5-5--3-3-3-3-3--1--5--3--|

Verse

                Got ya share of nuthin'...

|-------------------------------------------------|
|-------------------------------------------------|
|-------------------------------------------------|
|--------------7-7-7--5-5-5-5-5--7-7-7--3-3-3-3-3-|
|-------3------7-7-7--5-5-5-5-5--7-7-7--3-3-3-3-3-|
|-0-3-5---5-3--5-5-5--3-3-3-3-3--5-5-5--1-1-1-1-1-|


 The ground is shakin'...

|------------------------------------|
|------------------------------------|
|------------------------------------|
|-7-7-7--5-5-5-5-5--7-7-7--3-3-3-3-3-|
|-7-7-7--5-5-5-5-5--7-7-7--3-3-3-3-3-|
|-5-5-5--3-3-3-3-3--5-5-5--1-1-1-1-1-|

 Alwayz gotta be the...

|------------------------------------|
|------------------------------------|
|------------------------------------|
|-7-7-7--5-5-5-5-5--7-7-7--3-3-3-3-3-|
|-7-7-7--5-5-5-5-5--7-7-7--3-3-3-3-3-|
|-5-5-5--3-3-3-3-3--5-5-5--1-1-1-1-1-|

 Crusin' with the...

|------------------------------------|
|------------------------------------|
|------------------------------------|
|-7-7-7--5-5-5-5-5--7-7-7--3-3-3-3-3-|
|-7-7-7--5-5-5-5-5--7-7-7--3-3-3-3-3-|
|-5-5-5--3-3-3-3-3--5-5-5--1-1-1-1-1-|

Drinks are flowin'
My heart is blowin'
Another nite.. in another town

Oh I lov the taste of cyanide
Oh how i love.. to feel it burn inside
I'm on the hour and I've been there for a long time
But somhoe I feel like I'm fading out of line..

I dont know how to play that part...

Huh..

Solo rythm

|------------------------------------|
|------------------------------------|
|------------------------------------|
|-7-7-7--5-5-5-5-5--7-7-7--3-3-3-3-3-|
|-7-7-7--5-5-5-5-5--7-7-7--3-3-3-3-3-|
|-5-5-5--3-3-3-3-3--5-5-5--1-1-1-1-1-|

 Hang around in...

|------------------------------------|
|------------------------------------|
|------------------------------------|
|-7-7-7--5-5-5-5-5--7-7-7--3-3-3-3-3-|
|-7-7-7--5-5-5-5-5--7-7-7--3-3-3-3-3-|
|-5-5-5--3-3-3-3-3--5-5-5--1-1-1-1-1-|

I'm born a rebel..

|------------------------------------|
|------------------------------------|
|------------------------------------|
|-7-7-7--5-5-5-5-5--7-7-7--3-3-3-3-3-|
|-7-7-7--5-5-5-5-5--7-7-7--3-3-3-3-3-|
|-5-5-5--3-3-3-3-3--5-5-5--1-1-1-1-1-|

Drinks are flowin'
My heart is blowin'
Another nite.. in another town

Oh I lov the taste of cyanide
Oh how i love.. to feel it burn inside
I'm on the hour and I've been there for a long time
But somhoe I feel like I'm fading out of line..

Solo.. then when the solo is getting faster..

|-------|
|-------|
|-------|
|-----7-|
|-----7-|
|-5-5-5-|

Repeat 16 times

Then..

Drinks are flowin'
My heart is blowin'
Another nite.. in another town

Oh I lov the taste of cyanide
Oh how i love.. to feel it burn inside
I'm on the hour and I've been there for a long time
But somhoe I feel like I'm fading out of line..

Drinks are flowin'
My heart is blowin'
Another nite.. in another town

Oh I lov the taste of cyanide
Oh how i love.. to feel it burn inside
I'm on the hour and I've been there for a long time
But somhoe I feel like I'm fading out of line..

Outro

|------------------------------------|
|------------------------------------|
|------------------------------------|
|-7-7-7--5-5-5-5-5--7-7-7--3-3-3-3-3-|
|-7-7-7--5-5-5-5-5--7-7-7--3-3-3-3-3-|
|-5-5-5--3-3-3-3-3--5-5-5--1-1-1-1-1-|

|------------------------------------|
|------------------------------------|
|------------------------------------|
|-7-7-7--5-5-5-5-5--7-7-7--3-3-3-3-3-|
|-7-7-7--5-5-5-5-5--7-7-7--3-3-3-3-3-|
|-5-5-5--3-3-3-3-3--5-5-5--1-1-1-1-1-|

|---------------------------------|
|---------------------------------|
|---------------------------------|
|-3--7--5---------------7-7-7-7-7-|
|-3--7--5--------3------7-7-7-7-7-|
|-1--5--3--0-3-5---5-3--5-5-5-5-5-|

Thats it for me...
Hope you liked it..
It would be very nice if someone could tab the WHOLE song =)
Related for Out Of Line tab