Song name
# A B C D E F G H I J K L M N O P Q R S T U V W X Y Z

The Bravery - Time Wont Let Me Go tab

Song: Time Won't Let Me Go
Artist: The Bravery
Tabbed by: Andrew Bethman


I got the electric guitar parts all figured out...and I copied the chords in from 
tab for the verse and bridge....fun stuff

Chorus Rhythm

e-----5------------------------------|
B-----6--x8-------5------------------|
G-----------------5--x8------4-------|
D----------------------------5--x16--|
A------------------------------------|
E------------------------------------|

Lead that plays throughout the song...pretty easy to figure out where it is

e-------------------------------------------------------------------------------------------------|
B-----8----10----8------------------------------8--10---8-----------------------------------------|
G--------------------5---5--9---7--------------------------5---5--9---7-----7-4-------------------|
D--------------------------------------------------------------------------------7-5--------------|
A-------------------------------------------------------------------------------------------------|
E-------------------------------------------------------------------------------------------------|


F5         C5
Whenever I look back
G5                          A5 (quick)
On the best days of my life
F5        C5              G5   A5
I think I saw them all on T.V.
F5      C5
I am so homesick now for
G5                         A5
Someone that I never knew
F5      C5
I am so homesick now for
G5
Someplace I will never be

F5   C5           G5    A5
Time won't let me go
F5   C5           G5    A5
Time won't let me go
F5           C5
If I could do it all again
G5                                A5
I'd go back and change everything
F5       C5             G5    A5
But time won't let me go


Same throughout song until bridge:

Dm5
If I could go back once again
C5                       G5
I would change everything, yeah
Dm5                      C5
If I could go back once again
                       G5
I'd do it all so much better


F5, C5. G5, A5, etc.
Tap to rate this tab
# A B C D E F G H I J K L M N O P Q R S T U V W X Y Z