Song name
# A B C D E F G H I J K L M N O P Q R S T U V W X Y Z

The Bravery - Tragedy Bound tab

A few differences from Agathe’s chords. 
This should be correct


Standard tuning


    Fm#   E     Bm    A

e|---2----0-----2-----0-----|
B|---2----0-----3-----3-----|
G|---2----1-----4-----3-----|
D|---4----2-----4-----3-----|
A|---4----2-----2-----0-----|
E|---2----0-----x-----x-----|


Intro Fm#

VERSE:

Fm#                         E
Tragedy Bound looking for clues

                                    Fm#
I'm starting to suspect she likes abuse

                                       E                            
I'm starting to feel like she doesn't feel

                 Bm             Fm#
Is there anybody in there?


CHORUS:

A        E                    Fm# 
All her life, she's bound to lose

A        E    Bm              Fm#
All her life, she's bound to lose


BRIDGE:
Note: Could vary some 

     Fm#         E            Fm#          E
e|---------------------------------------------------|
B|------2----------0-------------2------------0------|
G|--------2----------1-------------2------------1----|
D|-----4----------2-------------4------------2-------|
A|---------------------------------------------------|
E|---2----------0-------------2------------0---------|
Tap to rate this tab
 
# A B C D E F G H I J K L M N O P Q R S T U V W X Y Z