Song name
# A B C D E F G H I J K L M N O P Q R S T U V W X Y Z

The Bravery - Above And Below tab

Everything:
e|-------------|
B|-------------|
G|----99----77-|
D|-77-99-99-77-|
A|-77-77-99-55-|
E|-55----77----|

e|-------------|------------|
B|-------------|------------|
G|----99----77-|--999999999-|
D|-77-99-99-77-|--999999999-|
A|-77-77-99-55-|--777777777-|
E|-55----77----|------------|

e|----------------------|
B|----------------------|
G|------------5555-4444-|
D|-7777-3333--5555-4444-|
A|-7777-3333--3333-2222-|
E|-5555-1111------------|
Tap to rate this tab
# A B C D E F G H I J K L M N O P Q R S T U V W X Y Z