Song name
# A B C D E F G H I J K L M N O P Q R S T U V W X Y Z

The Breakfast - Cosmic Spaceway Rhyme tab

#----------------------------------PLEASE NOTE---------------------------------#
#This file is the author's own work and represents their interpretation of the #
#song. You may only use this file for private study, scholarship, or research. #
#------------------------------------------------------------------------------##


Gtr I (E A D G B E) - 'Untitled'

  Q=113
 4/4
  Gtr I
  W            +H.         S S S +S      +W           +Q   +E. S E. S E. S
|------------|-------------------------|------------|-------------------------|
|------------|-------------------------|------------|----------7-6--7---------|
|-4b6--------|-(4)pb6------3-4-6-(6)b8r|=(6)--------|-(6)--(6)--------6--4----|
|------------|-------------------------|------------|-------------------------|
|------------|-------------------------|------------|-------------------------|
|------------|-------------------------|------------|-------------------------|


                    |-3-|     |-3-|
  W          +Q.    S S S S S S S S S S S S   Q  S E. +H
|----------|------------4-6-7-7-6-4-7-6-4-6-|-5--------------|
|----------|----------7---------------------|----7-----------|
|-6--------|-(6)---/6-----------------------|------6--(6)----|
|----------|--------------------------------|----------------|
|----------|--------------------------------|----------------|
|----------|--------------------------------|----------------|


  +E  Q     S S S    S S S S S S S      +W
|-----9b11--9-7-----------------------|----------------|
|---------------9b11r9-7---7---7------|----------------|
|-(6)--------------------9---9---9b11-|-(9)pb11--------|
|-------------------------------------|----------------|
|-------------------------------------|----------------|
|-------------------------------------|----------------|


                     |--3--|
  Q      +S       S  S  S  S  S  S  S  S  S  S  S  S
|----------------------13-14-15-16-12-13----------12--|
|-------------------14-------------------14----14-----|
|-9pb11--(9)pb11-13-------------------------13--------|
|-----------------------------------------------------|
|-----------------------------------------------------|
|-----------------------------------------------------|


                     |---3---|
   +S   E.    +S  S  S    S  S  S  S  S  S S S  S S
|-(12)-12b14r(12)-9-------9-------------------------|
|-------------------12b14---12-11-10-12-10-9--------|
|--------------------------------------------9----9-|
|----------------------------------------------11---|
|---------------------------------------------------|
|---------------------------------------------------|


                                                  |--3--|
   E  S S  E  S S E S  S E S S    Q.     S S Q.   S  S  S
|-----------------9-9-12-9---9-|-11b12---9-8-9---11-12-11-|
|-------9-------9----------9---|--------------------------|
|-10-10---10-10----------------|--------------------------|
|------------------------------|--------------------------|
|------------------------------|--------------------------|
|------------------------------|--------------------------|


  S  S  S  S  S  S  S  S  S  S  S S  E E
|-9--------------------------------------|
|---13-12-10-11--------------------------|
|---------------11----11-10--------------|
|------------------11-------11----9------|
|------------------------------11---11-9-|
|----------------------------------------|


  Q  S S S  S +E  S S S S S  S   +E  S S S S S S +S  S S  S  +S  S  E
|------------------------------|---------------------------------------|
|------------------------------|---------------------------------------|
|------------------------------|---------------------------------------|
|----------/7-(7)-----------/8-|-(8)-----------9-(9)---9-10-(10)---10--|
|-7--9-7-9--------9-7-9-7-9----|-----9-7-9-7-9-------9-----------9-----|
|------------------------------|---------------------------------------|


                |--3--|              |--3--|                   |--3--|
   E S  S S  E. S  S  S S  S S  E.   S  S  S  S  S  S  S  S S  S  S  S S  S  S S  E
|----------------------------------|------------------------------------------------|
|----------------------------------|------------------------9-11-12-11-9-12-11-9----|
|----9----9-11----------9----9-11--|---------10----10-11-12----------------------11-|
|-11---11-------9-10-11---11-------|-9-10-11----11----------------------------------|
|----------------------------------|------------------------------------------------|
|----------------------------------|------------------------------------------------|


          |-3--|  |-3--| |--3--| |--3--| |--3--|  |-3--|
  T.  E.. S  S S  S S  S S  S  S S  S  S S  S  S  S  S S
|------------------------9-12-11-9-------9------------------|
|---------9-10-9----9-10-----------12-11---12-11-12-11-9----|
|-9--11----------11-----------------------------------------|
|-----------------------------------------------------------|
|-----------------------------------------------------------|
|-----------------------------------------------------------|


   |-3--| |-3--| |-3--|  |-3-|  |-3-|  |-3-|  |-3-| |-3--|
   S S  S S S  S S S  S  S S S  S S S  S S S  S S S S S  S
|----------------------------------------------------------|
|-11-9------9----------------------------------------------|
|------11-9---11-9-8----11-9-8----9-8----------------------|
|--------------------11--------11-----11-9-8-11-9-8-9-8----|
|-------------------------------------------------------11-|
|----------------------------------------------------------|


  Q  S S S S +E  S S S E.
|----------------------------|
|----------------------------|
|----------------------------|
|----------------------------|
|-9--7-9---------------------|
|--------8-7-(7)-6-2-7-6-----|


  +E  S S S S S S S S S S S S S S   S S E +S   S E +E   S E  S E
|---------------------------------|------------------------------|
|---------------------------------|-9---9-(9)-10-9-(9)-10-9-10-9-|
|-------------------------6---8-6-|---9--------------------------|
|-------------6---8-6-9-8---9-----|------------------------------|
|---------9-7---9-----------------|------------------------------|
|-(6)-6-9-------------------------|------------------------------|


           |-3--|
  +S  a  S S  S S S S S S  S  S S  S  E  E
|------------------------------------------|
|-(9)-9h10-9-10-9-7-6-7-9-11-12-9-12-11----|
|---------------------------------------11-|
|------------------------------------------|
|------------------------------------------|
|------------------------------------------|


         |-3--| |-3--|  |-3--| |-3--|  |-3--| |--3--|
   +Q    S S  S S  S S  S S  S S  S S  S S  S S  S  S
|------------------------------9-12-9-11-9----9-11-12-|
|---------------9-10-9----9-10-------------13---------|
|-(11)-----9-11--------11-----------------------------|
|-------11--------------------------------------------|
|-----------------------------------------------------|
|-----------------------------------------------------|


      |-----5-----|                                   |--3--|
   E  T  T  T  T  T  E  T  T  T  T  E  T  T  T  T  E  S  S  S
|-14-16-18-16-14----16-18-16-14----16-18-16-14----16-18-16-14-|
|----------------14-------------14-------------14-------------|
|-------------------------------------------------------------|
|-------------------------------------------------------------|
|-------------------------------------------------------------|
|-------------------------------------------------------------|


                   |-----3-----|
   S  E.    Q      Q     Q     Q       E      +E   S  S  S  S  S  S  S  S  S  S  S  S
|----19b21-19b21--19b21-19b21-19b21-|-19pb21r(19)-18-19-18-19-18-19-18-19-18-19-18-19-|
|-14--------------------------------|-------------------------------------------------|
|-----------------------------------|-------------------------------------------------|
|-----------------------------------|-------------------------------------------------|
|-----------------------------------|-------------------------------------------------|
|-----------------------------------|-------------------------------------------------|


                              |-------3-------|
   +S   E     +S   +E.     S  Q       Q       Q
|-(19)-19b21r(19)-(19)b21r19-19pb21r=19pb21r=19pb21r===|
|------------------------------------------------------|
|------------------------------------------------------|
|------------------------------------------------------|
|------------------------------------------------------|
|------------------------------------------------------|


                          |--3--|  |------6-------|
   E  S  S  S  S  E  +E   S  S  S  S  S  S  S  S  S
|-19-18-19-18------------------16-18-16----------17-|
|-------------19-18-(18)-16-18----------18-16-19----|
|---------------------------------------------------|
|---------------------------------------------------|
|---------------------------------------------------|
|---------------------------------------------------|


   |------6-------|  |------6-------|  |------6-------|  |------6-------|
   S  S  S  S  S  S  S  S  S  S  S  S  S  S  S  S  S  S  S  S  S  S  S  S
|-19-17----------17-19-17----------17-19-17----------17-19-17----------16-|
|-------19-17-19----------19-17-19----------19-17-19----------19-16-18----|
|-------------------------------------------------------------------------|
|-------------------------------------------------------------------------|
|-------------------------------------------------------------------------|
|-------------------------------------------------------------------------|


   |------6-------|  |------6-------|  |------6-------|  |------6-------|
   S  S  S  S  S  S  S  S  S  S  S  S  S  S  S  S  S  S  S  S  S  S  S  S
|-18-16----------16-18-16----------16-18-16----------16-18-16----------16-|
|-------18-16-18----------18-16-18----------18-16-18----------18-16-17----|
|-------------------------------------------------------------------------|
|-------------------------------------------------------------------------|
|-------------------------------------------------------------------------|
|-------------------------------------------------------------------------|


   E  a  E  S  T  T  E  E  T  T  S E  E    E E  E  E E E E E
|-17-16h17-16-17-16-14-12-11-12-11-9----|------------------------|
|------------------------------------12-|-11-9-------------------|
|---------------------------------------|------11----------------|
|---------------------------------------|---------11-9-8---------|
|---------------------------------------|----------------9-------|
|---------------------------------------|------------------9\----|


Duration Legend
---------------
W - whole; H - half; Q - quarter; E - 8th; S - 16th; T - 32nd; X - 64th; a - acciaccatura
+ - note tied to previous; . - note dotted; .. - note double dotted
Uncapitalized letters represent notes that are staccato (1/2 duration)
Irregular groupings are notated above the duration line
Duration letters will always appear directly above the note/fret number it represents the
duration for.  Duration letters with no fret number below them represent rests.  Multi-
bar rests are notated in the form Wxn, where n is the number of bars to rest for.  Low
melody durations appear below the staff

Tablature Legend
----------------
 h   - hammer-on
 p   - pull-off
 b   - bend
 pb  - pre-bend
 r   - bend release (if no number after the r, then release immediately)
 /\  - slide into or out of (from/to "nowhere")
 s   - legato slide
 S   - shift slide
  - natural harmonic
[n]  - artificial harmonic
n(n) - tapped harmonic
 ~   - vibrato
 tr  - trill
 T   - tap
 TP  - trem. picking
 PM  - palm muting
\n/  - tremolo bar dip; n = amount to dip
 \n  - tremolo bar down
 n/  - tremolo bar up
/n\  - tremolo bar inverted dip
 =   - hold bend; also acts as connecting device for hammers/pulls
 <>  - volume swell (louder/softer)
 x   - on rhythm slash represents muted slash
 o   - on rhythm slash represents single note slash

Misc Legend
-----------
 |  - bar
||  - double bar
||o - repeat start
o|| - repeat end
*|  - double bar (ending)
 :  - bar (freetime)
 $  - Segno
 &  - Coda
Tempo markers -  = BPM(8/16=s8/s16), where s8 = swing 8ths, s16 = swing 16ths


***************************************************************************************
* Generated using Power Tab Editor by Brad Larsen - http://powertab.guitarnetwork.org *
**************************************************************************************
Tabbed by Jeremy Fretz 2008
Tap to rate this tab
 
# A B C D E F G H I J K L M N O P Q R S T U V W X Y Z