Song name
# A B C D E F G H I J K L M N O P Q R S T U V W X Y Z

The Breathalyzers - Stay In Line tab

The intro is bass but it is playable on guitar so i tabbed it for guitar. guitar. I saw
version but this is the right way to play it. This is also the only tab that wasnt an
that i saw. It seems like in studio they played 2 guitar tracks but I cant get the 
guitar one.

Standard tuning. email me at drugcrazednazi@yahoo.com


                    Intro
    E  E  E  E  E  E  E  E     E  E  E  E  E  E  E  E
E||--------------------------|---------------------------||
B||--------------------------|---------------------------||
G||--------------------------|---------------------------||  x2
D||--------2--3--------2--3--|--------2--3--------3--2---||
A||--3--3--------------------|--0--0---------------------||
E||--------------3--3--------|--------------1--1---------||

                                                  Intro Cont'd
  PM PM              PM PM    PM
  S  S  H.           S  S     W                   E  E  E  E  E  E  E  E
---------------------------|-------------------||-------------------------|
---------------------------|-------------------||-------------------------|
--5--5--5------------5--5--|--5----------------||----4--7--4-----4--7--4--|
--5--5--5------------5--5--|--5----------------||-------------------------|
--3--3--3------------3--3--|--3----------------||-5-----------0-----------|
---------------------------|-------------------||-------------------------|
                                 Verse/Chorus (play total of 8 times)

  E  E  E  E  E  E  E  E         E  E  E  E  E  E  E  E
-------------------------||    --------------------------|
-------------------------||    --------------------------|
-----4--7--4-----4--7--4-||x4  --------------------------|
-------------------------||    --7--7--7--7--7--7--7--7--|
--------------0----------||    --5--5--5--5--5--5--5--5--|
--3----------------------||    --------------------------|


  E  E  E  E  E  E  E  E     E  E  E  E  E  E  E  E
--------------------------|--------------------------|
--------------------------|--------------------------|
--------------------------|--------------------------|
--------------------------|--------------------------|
--7--7--7--7--7--7--7--7--|--9--9--9--9--9--9--9--9--|
--5--5--5--5--5--5--5--5--|--7--7--7--7--7--7--7--7--|


  E  E  E  E  E  E  E  E
--------------------------||
--------------------------||
--------------------------||
--------------------------|| x4
--5--5--5--5--5--5--5--5--||
--3--3--3--3--3--3--3--3--||

*NOTE: The verse and chorus are identical except the verse is completely palm muted.
After this you go back to the beginning and play this all again.
Tap to rate this tab
# A B C D E F G H I J K L M N O P Q R S T U V W X Y Z