Song name
# A B C D E F G H I J K L M N O P Q R S T U V W X Y Z

The Brew - Guacamole tab

----------------------------------------------------------------------------
The Brew
Guacamole
unreleased
www.thebrew.biz
----------------------------------------------------------------------------
tabbed by: Logan Salminen
email: loganmoeron@yahoo.com


(disclamer: as I put before all the tunes I try to transcribe, this is the artists work 
I am only doing my best to interpret it.
And Davey D is a master jedi and i can't really touch a lot of the licks he has...but 
my best shot)


Intro:

e|------------------------------------------------------------------------|
B|--15--15------15-15-15----------10----13--------------------------------|
G|--14--14------14-14-14----------9-----12--------------------------------|
D|--12--12------12-12-12----------7-----10--------------------------------|
A|------------------------------------------------------------------------|
E|------------------------------------------------------------------------|


then The first progression can be played like this: (in Dmin7)
e|--------------------------------------------------------------------------|
B|-6--6----8--8---5-------------6-------------------------------------------|
G|-5--5----7--7---5-------------5-------------------------------------------|
D|-7--7----9--9---5---X3--------7-------------------------------------------|
A|-5--5----7--7---7-------------5-------------------------------------------|
E|----------------5---------------------------------------------------------|

(followed by piano fill in Dminor scale)


Or like this:
e|-1--1----3--3------------------------1----------------------------------|
B|-3--3----5--5----2--2----------------3----------------------------------|
G|-2--2----4--4----0--0----------------2----------------------------------|
D|-----------------2--2----X3----------0----------------------------------|
A|------------------------------------------------------------------------|
E|------------------------------------------------------------------------|

(followed by piano fill in Dminor scale)
First progression is repeated twice.


The Second Progression is like this:

e|-----10-10-----10-10-----10-10---10-------------------------------------|
B|-----10-10-----10-10-----10-10---10-----11----11----15------------------|
G|-----10-10-----10-10-----10-10---10-----10----9-----14------------------|
D|-12--------11---------10---------9------8-----7-----12------------------|
A|------------------------------------------------------------------------|
E|------------------------------------------------------------------------|

this section is played twice
back to first progression twice
second progression twice

Then we go to the more upbeat part for Daves solo..
This is just G to C, and Daves solo is in a Dminor scale.

(heres an example of the part of the Dminor scale that Is used for this part of the solo


e|----------------------------------------------------------------10--12--13-|
B|----------------------------------------------------10--11--13-------------|
G|---------------------------------------9--10--12---------------------------|
D|-----------------------------10--12----------------------------------------|
A|--------------10--12--13---------------------------------------------------|
E|10--12--13-----------------------------------------------------------------|


The next part is where they break it down and it is a piano solo.
Dave Plays:

e|--------------------------------------------------------------------------|
B|--------------------------------------------------------------------------|
G|--------------------------------------------------------------------------|
D|-----------------------------5--7-8-7--5-5--7-8-7-------------------------|
A|5--7-8-7--5-5-7-8-7-X2------------------------------5--7-8-7--5-5-7-8-7---|
E|--------------------------------------------------------------------------|

e|------------------------------------------------------------------------|
B|------------------------------------------------------------------------|
G|-------------------------------------------------------00000------------|
D|-7--9-10-9----5--7-8-7------------------------4/5-55555-----------------|
A|----------------------------5--7-8-7------------------------------------|
E|------------------------------------------------------------------------|


the band plays one more bar of this blues progression and then goes back to the G to C.

some dave solo chops.

e|-----000000--------00000---------00000----------00000----------------------|
B|-2/3-333333--2/3---33333----2/3--33333------2/3-33333----------------------|
G|---------------------------------------------------------------------------|
D|---------------------------------------------------------------------------|
A|---------------------------------------------------------------------------|
E|---------------------------------------------------------------------------|

this next one is sweet, super fast pulloffs.

e|---6p5p3-----------6p5p3---------6p5p3---------6p5p3--------------------|
B|------------6p5p3---------6p5p3---------6p5p3----------6p5p3------------|
G|------------------------------------------------------------------------|
D|------------------------------------------------------------------------|
A|------------------------------------------------------------------------|
E|------------------------------------------------------------------------|

and then proceed to tear the Dminor scale up.

After build up it is GG (followed by piano fill) CC(piano fill) GG(piano fill)

Then these two chords.

e|------------------------------------------------------------------------|
B|-12---------14----------------------------------------------------------|
G|-11---------13----------------------------------------------------------|
D|-9----------11----------------------------------------------------------|
A|-10---------12----------------------------------------------------------|
E|------------------------------------------------------------------------|

now back to 2nd progression salsa riff. the second progression is played twice, then it 
the first progression slowed way down.
It is played loosely, 4 times with each instrument taking a small solo at the end of the bar..
Daves is something like this..

(rake)
e|-------------(12)-13-12---------------------------------------------------|
B|---------(15)-----------15-14---------------------------------------------|
G|-----(14)---------------------15-14--12-14-15-14-12-----------------------|
D|-(12)----------------------------------------------15-14-12-14------------|
A|--------------------------------------------------------------13-12-10----|
E|-----------------------------------------------------------------------10-|

It is then an upbeat first progression ending on a big D
Tap to rate this tab
# A B C D E F G H I J K L M N O P Q R S T U V W X Y Z