Song name
# A B C D E F G H I J K L M N O P Q R S T U V W X Y Z

The Brew - Castle Walls tab

----------------------------------------------------------------------------
The Brew
Castle Walls
from Back to the Woods
----------------------------------------------------------------------------

tabbed by: Logan Salminen
email: loganmoeron@yahoo.com

intro chords after vocal melody: E E, D# D#, D D, D D# with slides inbetween notes.

then chris and dave do something like this riff

e|----------------------------------------------------------------|
B|----------------------------------------------------------------|
G|---12--11--9---------9--11--12--11--9---------------------------|
D|----------------9---9------------------------9------------------|
A|----------------------------------------------------------------|
E|----------------------------------------------------------------|


chris continues that riff and dave does something like this.

e|----------------------------------------------------------------------|
B|---------0--------0--------0--------0---------------------------------|
G|------2--------2--------2--------2------------------------------------|
D|---2--------2--------2--------2---------------------------------------|
A|----------------------------------------------------------------------|
E|----------------------------------------------------------------------|

during the verse i think the chords joe plays as the root notes are
E, D#, D, B, C, G, E

then repeat intro and melody and the second verse.

the next bridge part chords are
C, D, E, F

then the heavy part.

e|----------------------------------------|
B|----------------------------------------|
G|----------------------------------------|
D|----------------------------------------|
A|---7--9--10-12--9-10--6-----------------|
E|----------------------------------------|

make sure to do lots of squeeling and hammers and make dave proud
Tap to rate this tab
# A B C D E F G H I J K L M N O P Q R S T U V W X Y Z