Song name
# A B C D E F G H I J K L M N O P Q R S T U V W X Y Z

The Brew - Black Train tab

----------------------------------------------------------------------------
The Brew
Black Train
from Back to the Woods
----------------------------------------------------------------------------

(taken from live version)
the root notes for the intro are B F# G# D#

e|-------------2---------4----------------------------------------|
B|-----4-------2---------4------7---------------------------------|
G|-----4----------------------8----8------------------------------|
D|---4------4---------6------8------------------------------------|
A|-2--------4---------6------6------------------------------------|
E|--------2---------4---------------------------------------------|


then the upbeat rockin’ part

e|---------------------------------------------------------------|
B|---------------------------------------------------------------|
G|--3-2-1----1----------3-2-1---1--------------------------------|
D|---------------4/5-----------------4/5--1----------------------|
A|---------------------------------------------------------------|
E|---------------------------------------------------------------|

the verse is the B F# G# D#

Then this lick “tell me is your conscience killing you”

e|---------------------------------------------------------------|
B|----7-6-4----------------6-4-----------------------------------|
G|-----------6-6---4/3-3-----------------------------------------|
D|---------------------------------------------------------------|
A|---------------------------------------------------------------|
E|---------------------------------------------------------------|

right before chorus Joe walks up D# F F# G

(no chorus right now, I’ll get back to it)

the part with the people talking samples on the studio
with Dave using Digital Delay pedal.

e|---------------------------------------------------------------|
B|----16/---13/--14/--15/----------------------------------------|
G|---------------------------------------------------------------|
D|---------------------------------------------------------------|
A|---------------------------------------------------------------|
E|---------------------------------------------------------------|

e|---------------------------------------------------------------|
B|-16-16---14-14---13-13---14-14---------------------------------|
G|---------------------------------------------------------------|
D|---------------------------------------------------------------|
A|---------------------------------------------------------------|
E|---------------------------------------------------------------|


for Jam, Joe and Chris play D# C C# and then G# F F#
Then stretch out and improv in D#
Tap to rate this tab
# A B C D E F G H I J K L M N O P Q R S T U V W X Y Z