Song name
# A B C D E F G H I J K L M N O P Q R S T U V W X Y Z

The Brew - The Book tab

----------------------------------------------------------------------------
the brew
the book
from tea time
----------------------------------------------------------------------------

tabbed by: Logan Salminen
email: loganmoeron@yahoo.com


intro:
first they kinda noodle going from A#maj7 to G#maj7

then the main melody
e|---------------------------------4------------------|
B|---------------------------------4------------------|
G|---------------------------------5------------------|
D|---------------------------------4------------------|
A|---------------8-6---5-6-5----6---------------------|
E|--6---3-4-6-----------------6-4---------------------|

e|-------------------------------------------------------|
B|-------------------------------------------------------|
G|-------------------------------------------------------|
D|-------------------------------------------------------|
A|------------8-6-6-565----------------------------------|
E|-6-6-4-6---------------6--4----------------------------|


then chris and joe (Keys and bass) play A#maj7 to G#maj7 and dave does something like this

e|-/10--8-10-11-13-11-10-11--13-13/11/10/11---10/11/10---6/8-6--------------|
B|----------------------------------------------------------------6/8-6-----|
G|--------------------------------------------------------------------------|
D|--------------------------------------------------------------------------|
A|--------------------------------------------------------------------------|
E|--------------------------------------------------------------------------|


e|--------------------------------------------------------------|
B|------------8-------------------------------------------------|
G|--7-8-10-----10-8-7-------------------------------------------|
D|---------------------------8----8/10/8------------------------|
A|--------------------------------------------------------------|
E|--------------------------------------------------------------|


then the verse...(after the last g#maj7 of the last bar theres a walk down to fmaj7)

Fmaj7
Through the shades I saw the girl
A#maj7
She led me through the crystal hall
D#maj7
Looked away looked back again
G#maj7
She held my hand in through a fan

repeat that progression once, then:

A#maj7
she noticed that i looked confused
G#maj7
she told me what i was looking for

....................A#maj7 .......................C#
she said the book is in the bag the bag is in the box
G# ............. A ............... A#
the box is in the back of the room

followed by the intro riff and progression....
(sorry too lazy to try to figure out and tab daves second solo...just use the same form 
the first)
so then another verse then......

A#maj7
Turning the pages through and through
C#maj
I found a place where a note was kept
A#maj7 ...............................................G#maj7
Here and away to see just where you slept
A#maj7
I found myself in some other place
C#maj
Awaking to another face
D#maj
Adjusting to another pace
C#maj ........................D...................... D#maj
She took my hand and i slipped into in space

intro riff again......
and dave solo....
jazzy section is verse progression....
and chorus one more time SHE SAID
Tap to rate this tab
# A B C D E F G H I J K L M N O P Q R S T U V W X Y Z