Song name
# A B C D E F G H I J K L M N O P Q R S T U V W X Y Z

The Brew - Chance Reaching tab

----------------------------------------------------------------------------
Chance Reaching
The Brew
Back to the Woods
----------------------------------------------------------------------------

(disclamer: as I put before all the tunes I try to transcribe, this is the artists work 
I am only doing my best to interpret it.
And Davey D is a master jedi and i can't really touch a lot of the licks he has...but 
my best shot)

Intro:
B F#, D A, E - B F#, D A, A (rest on final A)

Verse:
(root notes i believe are D, G, F#, C#)
dave plays
e|------------10/--------------------9--------------------|
B|------------8/----------------6/7-----------------------|
G|-7/6/7--------------7/6/7-------------------------------|
D|--------------------------------------------------------|
A|--------------------------------------------------------|
E|--------------------------------------------------------|
dave plays that 4 times

Chorus:
B F#, D A, E x3 B F#, D A, A (rest on last A)

lick right after "It's all I've ever known"

e|-7/9--7--5---------------------------------------------|
B|-------------------------------------------------------|
G|-------------------------------------------------------|
D|-------------------------------------------------------|
A|-------------------------------------------------------|
E|-------------------------------------------------------|

then verse again, and chorus again....

Bridge: (this is at the 1:30 mark on BTTW)
over A chord Dave plays

e|------------------------------------------------|
B|-5--3-5-2---5-3-5-------------------------------|
G|------------------------------------------------|
D|------------------------------------------------|
A|------------------------------------------------|
E|------------------------------------------------|

twice
and then

e|-------------------------------------------------|
B|---5-7--9-7-9-5---9-7-9--------------------------|
G|-------------------------------------------------|
D|-------------------------------------------------|
A|-------------------------------------------------|
E|-------------------------------------------------|

e|--------------------------------------------------------------------------|
B|--5-7-9---7-9-5--7-9-10----9-10-12---10-12-14---12-14-15-17/--------------|
G|--------------------------------------------------------------------------|
D|--------------------------------------------------------------------------|
A---------------------------------------------------------------------------|
E|--------------------------------------------------------------------------|

then dave repeats that but up one octave.
followed by chorus chords with no lyrics.
followed by another verse.

"Got one life to live"
these chords with pauses are
A, G, F#, C#

followed by chorus and then the bridge again.
The chords over the next part with Chris's solo are
E, D, E, C#, E, D, E

the change after chris's solo and before Daves solo are
E, C, G#, F#, C#, D#, E (this is done 4 times)

then it's Daves turn. he starts with this riff.

e|------7-7--------7-7---5-4---------------7-7-7-5-4------------------------|
B|--5-----------5--------------5---------5-----------------5----------------|
G|4----------4--------------------4---4---------------------4---1^----------|
D|--------------------------------------------------------------------------|
A|--------------------------------------------------------------------------|
E|--------------------------------------------------------------------------|

Then you can just solo in E major scale.
Then there is the huge last band build up over Dave solo.
B,C#,D,C# - D,E,F#,E - F#,G#,A,G# - A,B,C#,D,E,F#
it is then dave again with that last riff but up one octave.
the outro is: E,D,E,C#,E,D,E
Tap to rate this tab
# A B C D E F G H I J K L M N O P Q R S T U V W X Y Z