Song name
# A B C D E F G H I J K L M N O P Q R S T U V W X Y Z

The Brew - First Of Things tab

-----------------------------------------------------------------------
The Brew
First of Things
From: Back To The Woods
-----------------------------------------------------------------------
Tabbed by: Logan Salminen
Email: loganmoeron@yahoo.com

Tuning: eadgbe

(disclamer: as I put before all the tunes I try to transcribe, this is the artists work
I am only doing my best to interpret it.
And Davey D is a master jedi and i can't really touch a lot of the licks he has...but
my best shot)

Intro: the first 2 bars start with a rake on the first chord high e to low E
The guitar then follows the bass and keys with this walk up with some echo
e|-3------------------------------------------------------------------|
B|-3-----------------------5------------------------------------------|
G|-0-----------------5--7---------------------------------------------|
D|-0---------5--7-8---------------------------------------------------|
A|-0------------------------------------------------------------------|
E|-3------------------------------------------------------------------|


3rd and 4th bars of intro is the same as the verse. bass line is A#, D, G, C with this 
over it. Add echo and play loosely

e|-----3/5/3-------3/5/3------------3/5/3------------10/--------------|
B|-5/6-------5/6/5-------5/6/5---5/6------6/5/3-5---------------------|
G|-------------------------------------------------5------------------|
D|--------------------------------------------------------------------|
A|--------------------------------------------------------------------|
E|--------------------------------------------------------------------|


After the second verse is the bridge with the bass playing something like E,D#,D,D#, - E,D#,F,
"It's plain that this is hard to do.  But it's just the first of things that I would do 
you"
e|----8--------11---------13------------------------------------------|
B|-/8---8--/11----11--/13----13----13/11-11/10-10/8-------------------|
G|--------------------------------------------------------------------|
D|--------------------------------------------------------------------|
A|--------------------------------------------------------------------|
E|--------------------------------------------------------------------|

After the bridge it is the same 4 bars from the intro, and 4 more bars of the verse. 
the bridge again then this melody. The bass walks down these notes - G,F,E,C,D,C,A,F,G
e|--------------------------------------------------------------------|
B|-----------5-7/8-6^-------------------------------------------------|
G|-------5-7----------7-5^--------------------------------------------|
D|-5-578-------------------7/8/7-5------------------------------------|
A|--------------------------------------------------------------------|
E|--------------------------------------------------------------------|

Repeat the whole pattern - intro, verse, bridge, melody. This melody then is extended 
adds the solo. 8 bars total of main melody repeating.  3rd and 4th bars are the slide solo
e|-------/8-------/13---------17--------------------------------------|
B|-6/8------8/11-------11/15------15/20^/-----------------------------|
G|--------------------------------------------------------------------|
D|--------------------------------------------------------------------|
A|--------------------------------------------------------------------|
E|--------------------------------------------------------------------|

5th bar
e|--15^---------------------------------------------------------------|
B|-------13^---13-15-13-15^^^-----------------------------------------|
G|-----------------------------12-------------------------------------|
D|--------------------------------12^---------------------------------|
A|--------------------------------------------------------------------|
E|--------------------------------------------------------------------|

6th bar
e|--------------------------------------------------------------------|
B|----------------------------11/13/11--------------------------------|
G|------------------12-14-12-----------10-----------------------------|
D|------------10-12---------------------------------------------------|
A|--10--12-13---------------------------------------------------------|
E|--------------------------------------------------------------------|
6th bar still-make it squeal!!
e|--------------------------------------------------------------------|
B|--------------------------------------------------------------------|
G|-9/10/9----9/10/9----9/10/9-----------------------------------------|
D|--------12--------12--------10^-------------------------------------|
A|--------------------------------10^---------------------------------|
E|--------------------------------------------------------------------|

Return to main melody for 7th and 8th bars, then intro riff to end.


| /  slide up
| \  slide down
| h  hammer-on
| p  pull-off
| ~  vibrato
| +  harmonic
| x  Mute note
=======================================================================
Tap to rate this tab
 
# A B C D E F G H I J K L M N O P Q R S T U V W X Y Z