Song name
# A B C D E F G H I J K L M N O P Q R S T U V W X Y Z

The Bright Light Social Hour - Shanty tab

This is the tab of Shanty, The Bright Light Social Hour.
you will need a slider to play this song correctly.
Hope you enjoy! :)

 | b = bend
 | r = release bend
 | / = slide
 | // = slide until wherever you want
 | ~ = vibrato
 
INTRO (with slider)

e|--------------------------------------------------------------------------|
B|------11~--12~--10~---14/12--12-10/12---10-10/12-12/14~---14/--10/11~-----|
G|-4/11-11~-----------------------------------------------------------11~---|
D|----------------------------------------------------------------------11~-|
A|--------------------------------------------------------------------------|
E|--------------------------------------------------------------------------|

e|-------------------------------------------------------------------|
B|-11//--11~---10~---12~---------------------------------------------|
G|-11//--11~---11~---11~---------------------------------------------|
D|-11//--11~---11~---9~----11--11--11--11-11-9--11--11---4-------2-4-|
A|-------9~----9~----9~----9---9---9---9--9--9--9---9------2-3-4-----|
E|-------------------------------------------------------------------|

REFRAIN

e|-7~--9~-------------------------------------------------------------------|
B|-7~--9~-------------------------------------------------------------------|
G|-7~--9~----2/4-3b4---------2/4-3b4------2/4-3b4--------2/4-3b4------------|
D|-9~--11~-----------4--2-4----------4~----------4--2-4---------4-------2-4-|
A|-9~--11~--------------------------------------------------------2-3-4-----|
E|-7~--9~-------------------------------------------------------------------|

The second refrain is the same as the first, just the final part changes

e|-------------------------------------------|
B|-------------------------------------------|
G|-...-2/4-3b4-4b5-5-5r4-2--2-2h4--4b6r4-4b6-|
D|-------------------------4-----------------|
A|-------------------------------------------|
E|-------------------------------------------|

e|-------------------------------|
B|-------------------------------|
G|-------------------------------|
D|---11--11--11--11-11-9--11--11-|
A|-2/9---9---9---9--9--9--9---9--|
E|-------------------------------|

And then...

e|-7~--9~--|
B|-7~--9~--|
G|-7~--9~--| 4x
D|-9~--11~-|
A|-9~--11~-|
E|-7~--9~--|


the solo part (with slider)

e|--------------------------------------------------------------------------|
B|------11~--12~--10~---14/12--12-10/12---10-10/12-12/14~---14/--10/11~-----|
G|-4/11-11~-----------------------------------------------------------11~---|
D|----------------------------------------------------------------------11~-|
A|--------------------------------------------------------------------------|
E|--------------------------------------------------------------------------|

e|------------------------------------------------------------------------|
B|-12-10~--9-10/12--12-9~--7-9/10--/10-9----------------------10/11-------|
G|---------------------------------------9-9/11~----9/10/11---------11~---|
D|--------------------------------------------------9/10/11-----------11~-|
A|------------------------------------------------------------------------|
E|------------------------------------------------------------------------|

e|-----------------------------------------------------------------17~-|
B|-12-10~--9/10-7/10---14-12-10/12~--/10-12/14~--/14-17-19~--17-19-----|
G|---------------------------------------------------------------------|
D|---------------------------------------------------------------------|
A|---------------------------------------------------------------------|
E|---------------------------------------------------------------------|

e|-19-17~--16-17/19~--19-16~--14-16/17~--/17-16-------------12//-|
B|----------------------------------------------17-17/19~---12//-|
G|---------------------------------------------------------------|
D|---------------------------------------------------------------|
A|---------------------------------------------------------------|
E|---------------------------------------------------------------|

e|-----------------------------------------------|
B|-11~---10~---12~---11~---11~---10~---12~---11~-|
G|-11~---11~---11~---11~---11~---11~---11~---11~-|
D|-11~---11~---9~----11~---11~---11~---11~---11~-|
A|-9~----9~----9~----9~----9~----9~----9~----9~--|
E|-----------------------------------------------|

Slider again

e|--------------------------------------------------------------------------|
B|-----10/11-------------12-10-9/10~--7/10-7-7/10~--14-12-10/12~--10-12/14~-|
G|-4/11-----11~-9-11/14~----------------------------------------------------|
D|--------------------------------------------------------------------------|
A|--------------------------------------------------------------------------|
E|--------------------------------------------------------------------------|

e|--------------|---------------------------------------------------|
B|-/14-/11~-----|--10/11--10/11---------------12-10-9/10~--10-7/10~-|
G|--------11~---|-------11-----11~--9-11/14~------------------------|
D|----------11~-|---------------------------------------------------|
A|--------------|---------------------------------------------------|
E|--------------|---------------------------------------------------|

e|------------------------------------------------------------------|
B|-14-12-10/12~--10 12/14~--/14-17/19~--17-19~-17-14-12-10-12-10----|
G|---------------------------------------------------------------11-|
D|------------------------------------------------------------------|
A|------------------------------------------------------------------|
E|------------------------------------------------------------------|

e|------------------------------------------------------------------------|
B|---------------------------------9/10-9---------------------------------|
G|-11/9--9-11/9--9-11/9--9-11/9--11--------9-11/9--9-11/9--9-11/9--9-11/9-|
D|------------------------------------------------------------------------|
A|------------------------------------------------------------------------|
E|------------------------------------------------------------------------|

e|--------------------------------------------------17~-|
B|-10/14--12-10/12~--10-12/14~--14-17/19~--17-17/19-----|
G|------------------------------------------------------|
D|------------------------------------------------------|
A|------------------------------------------------------|
E|------------------------------------------------------|

e|------------------------16/17-16------------------------21-19~--17-19/21-|
B|-17-19/17--17-19/17-...----------17-19/17--17-19/17-...------------------|
G|-------------------------------------------------------------------------|
D|-------------------------------------------------------------------------|
A|-------------------------------------------------------------------------|
E|-------------------------------------------------------------------------|

e|-19/21--19/17/19~----------------------------17//---9~----9~----9~--|
B|----------------19~--------17/19-17----17/19-17//---11~---10~---12~-|
G|------------------18~---18----------18--------------11~---11~---11~-|
D|----------------------------------------------------11~---11~---9~--|
A|----------------------------------------------------9~----9~----9~--|
E|--------------------------------------------------------------------|

e|---------------------------------------|
B|---------------------------------------|
G|---------------------------------------|
D|-11--11--11--11-11-9--11--11---4-------|
A|-9---9---9---9--9--9--9---9------2-3-4-|
E|---------------------------------------|
Tap to rate this tab
# A B C D E F G H I J K L M N O P Q R S T U V W X Y Z