Song name
# A B C D E F G H I J K L M N O P Q R S T U V W X Y Z

The Brilliant Green - Ash Like Snow tab

Help us improve GuitareTab! Take a short survey!
Now that i finally found an MIDI file of this song to clear out the background noise, i 
able to tab out the intro,and then used guitar pro to get it just about perfect, so here 
is! and  i should have the chords for the entire song soon.

P.S. BEST SONG EVEEER!

E||------------------------------|-----------10----7----|--8----------------|
B||------------------------------|------8---------------|-------------------|
G||------------------------------|----------------------|-------------------|
D||--10--10--10----10----10--10--|----------------------|-------------------|
A||--10--10--10----10----10--10--|----------------------|-------------------|
E||---8---8---8-----8-----8---8--|----------------------|-------------------|

--7--------5--------|--7----------------|-----------10----7----||
--------------------|-------------------|------8---------------||
--------------------|-------------------|----------------------||
--------------------|-------------------|----------------------||
--------------------|-------------------|----------------------||
--------------------|-------------------|----------------------||
Any questions/comments--> ianxi@yahoo.com
Related for Ash Like Snow tab