Song name
# A B C D E F G H I J K L M N O P Q R S T U V W X Y Z

The Brilliant Green - Ai No Hoshi tab

Highlighted       Show chord diagrams
The Brilliant Green
Ai no Ai no Hoshi; The Planet of Love
Winter
2002
Submitted by: paramore_fans@yahoo.com

Tuning: Standard and capo on 1st fret on both guitars

Chords used:
G     - 320033
Cadd9 - x32033
Em7   - 022033
D     - xx0232
C     - x32010
Em    - 022000

Intro: G-Cadd9-Em7-D (x2)


Verse 1:
G      Cadd9 Em7        D         G  
Em7    D
  Tsumetai mizu no shizuku ochite umareru ai no hoshi
G     Cadd9  Em7       D         G-Cadd9-Em7-D
  Mabushii hikari wo kake nuke kita
G     Cadd9  Em7      D         G     
 Em7    D
  Ima mita warui yume no naka ni tsunagaru kono sekai
G   Cadd9    Em7       D        G-Cadd9-Em7-D
  Yobun na namida wa nugutte ageru


Guitar 2: will start at "Ima mita..."
e|-3-2-----------------------|
B|-----3--0-3-0-0-0-3--------|
G|---------------------0---0-|
D|-----------------------4---| (x4)
A|---------------------------|
E|---------------------------|


Refrain 1:
      C            G     Em       D           
      G
Nagareru kumo ga totsuzen katachi wo kaete shimau you ni
     C              G     Em       D         C
Mitsuketa hazu no kotae mo sugu ni miushinau kara


Guitar 2:
e|--------------------------------------------------|
B|-----3---0------3---0-------3-------3-------------|
G|---0---0---3--0---0---3---0---0---2---2---0h2-2-0-|
D|------------------------2-------0-----------------|
A|-3--------------------------------------3---------|
E|-------------3------------------------------------|

e|------------------------7(x4)-5(x4)-3~------------|
B|-----3---0------3---0---8(x4)-7(x4)-5~------------|
G|---0---0---3--0---0---3-9(x4)-7(x4)-5~------------|
D|------------------------9(x4)-7(x4)-5~------------|
A|-3----------------------7(x4)-5(x4)-3~------------|
E|-------------3-----------------------~------------|


Chorus:
       G C         Em    D      G    C
Ashita ga hareta sora no hi demo woo baby
  Em   D         G C         Em  D 
    G
Kokoro ni hikari wo tozasu kurai yami ga
            Em      D     G-C-Em-D(x2)
Ochitara tsure dashite ageru yeah

Guitar 2:
e|-10~--8~-7~-10~---|
B|-12~--8~-8~-10~---|
G|-12~--9~-9~-11~---|
D|-12~-10~-9~-12~---| (x4)
A|-10~-10~-7~-12~---|
E|------8~----10~---|

then after chorus

Guitar 2:
e|-3/8~-7------------3/8~-7-10~-8\7~-3/8~-7------------3/8~-7~-10~-|
B|--------8~---7h8p0------------------------8~---7h8p0-------------|
G|-0---------7-------0---------------0---------7-------0-----------|
D|-----------------------------------------------------------------|
A|-----------------------------------------------------------------|
E|-----------------------------------------------------------------|


Verse 2:
G     Cadd9   Em7    D       G    
 Em7      D
  Yokei na kanjou wo sutetara hirogaru musuu no hoshi
G     Cadd9   Em7       D         G-Cadd9-Em7-D
  Shiawase to kaze ni michita hikari

Guitar 2:
e|----3p2---------3p2------------3/8-10~--|
B|--------3~----------3~-------3----------|
G|---------------------------0------------|
D|----------------------------------------|
A|----------------------------------------|
E|----------------------------------------|


Refrain 2:
      C       G      Em     D            C  
G
Anata no fuan no sora kumoraseru mono no subete
       C           G      Em      D          C
Kowashite kibou no keshiki sugu misete ageru kara

Guitar 2:
e|--------7-------7~-----------7------10-------8---3~---|
B|------8---8---8----8---8~--8---8-10----10--8---8-3~---|
G|-4/7~-------7--------7-----9-----11--------9---9-4~---|
D|---------------------------9-----12-------10--10-5~---|
A|---------------------------7-----12-------10--10-5~---|
E|---------------------------------10--------8---8-3~---|

e|--------7-------7~---------7(x4)-5(x4)-3~----|
B|------8---8---8----8---8~--8(x4)-7(x4)-5~----|
G|-4/7~-------7--------7-----9(x4)-7(x4)-5~----|
D|---------------------------9(x4)-7(x4)-5~----|
A|---------------------------7(x4)-5(x4)-3~----|
E|------------------------------------~--------|

Chorus 2:
     G C       Em     D       G    
     Em D
Tatoeba tsuyoi ame no hi ni wa woo baby oshiete
       G          Em  D      G  C      
  D
Tsumetai sono ame no ito kara sukutte ageru ima sugu

e|-10~--8~-7~-10~---|
B|-12~--8~-8~-10~---|
G|-12~--9~-9~-11~---|
D|-12~-10~-9~-12~---| (x4)
A|-10~-10~-7~-12~---|
E|------8~----10~---|


Bridge:
C      G              C         G
Ah sugite yuku ichido mo furikaeranu mama
     C       G            Em      D      C  
             G
Shiroku saku hana ni nite tsuyoku sensai na hikari no you ni


Intrlude:

Guitar 1: G-Cadd9-Em7-D (x4)

Guitar 2: Get ready for the tricky solo
e|-----------------------------------------------------------------7p5~-------|
B|---------------------------------------------------------------8------8-8---|
G|-4/7~-4/7-7-7-7~-9----------7~----0h2h4~-----4p2p0---0h2h4h5/7------------0-|
D|-------------------10~-10\9-----0--------0-0-------0------------------------|
A|----------------------------------------------------------------------------|
E|----------------------------------------------------------------------------|

e|---------7~-8p7---10~--17~-14h15-15p14p12-------19----19----19----19----19----|
B|-8---8----------8-------------------------15-15----20----20----20----20----20-|
G|---0--------------------------------------------------------------------------|
D|-------0----------------------------------------------------------------------|
A|------------------------------------------------------------------------------|
E|------------------------------------------------------------------------------|

e|-19---19---19p17-17p15-15p14-14---14-15p14----|
B|-------------------------------------------15-|
G|----0----0------------------------------------|
D|--------------------------------0-------------|
A|----------------------------------------------|
E|----------------------------------------------|

Outro:
         G  C      Em       D
La la la la, la la la la la la la la (x2)

G(hold)


English version:

 Cold drops of water fall, a planet of love is born
I passed through the brilliant light
This world that's connected to the bad dream I just had
I'll wipe your excess tears

 Just as the floating clouds
Suddenly change their shape
I soon lose sight of the answer I thought I'd found

 Even if tomorrow's sky is clear woo baby
If you fall into the darkness locked in your heart
I'll bring you back yeah

 If we throw away unnecessary feelings
Countless planets will unfold
The light filled with wind and happiness

 I'll break everything
That clouds up your uneasy sky
And soon show you
The landscape of hope

 Even on a very rainy day
Woo baby tell me
And I'll come soon and save you
From the cold threads of rain

 Ah it passes
And we can't turn back again
Like a white flower that blooms
Like the very subtle light

http://www.brilliantgreen.net
Tap to rate this tab
# A B C D E F G H I J K L M N O P Q R S T U V W X Y Z