Song name
# A B C D E F G H I J K L M N O P Q R S T U V W X Y Z

The Brilliant Green - Tsumeta Hana tab

The Brilliant Green
Tsumetai Hana
Submitted by: paramore_fans@yahoo.com

Tuning: Drop D

Chords used: Drop D only
G#m - 6664xx
E -   222100
B -   x24442
F# -  4443xx
Eb -  11134x
C# -  x46664


Intro: G#m-E-B-F# (x4)

Guitar 2:
e|----------------------2--0---------------|
B|-4--4-2-0----------4-------4-0--4--4-----|
G|-----------------4-------------------4---|
D|-----------4---4-----------------------4-|
A|-------------4---------------------------|
D|-----------------------------------------|
then
e|----------------------2--0------2/7--4--2--------|
B|-4--4-2-0----------4-------4-0------------4--2/4-|
G|-----------------4-------------------------------|
D|-----------4---4---------------------------------|
A|-------------4-----------------------------------|
D|-------------------------------------------------|


Verse 1:
G#m           E  B   F#      G#m            
    E          B       F#
Kizutsukeau kurai aishiteita Yume wa zetsubou ni natta shiranu uchi ni
G#m              E B    F#           G#m    
        E       B     F#
Sashikomu hikari ga sukima kaze ga Nureta houhou ni itaku shimi'iruyou


Refrain 1:
E               B               Eb                            
      G#m
Douse ashita to iu hi wa atte Nanika ga mitashite yuku no itsu no hi ka
F#  E                   B                Eb
Konkyo no nai chiisana atarashii yume Te no hira ni kanjiteru no


Chorus:
B           E       F#       Eb             G#m
I'm feeling myself again I'm feeling better now
  C#     F#     Eb
Yurikago wo yusaburu kaze
B           E       F#       Eb             G#m
I'm feeling myself again I'm feeling better yeah
    C#        F#
Furikaeru you ni yume kara sameta


Interlude: G#m-E-B-F#

Guitar 2:
e|------------2/7-4-2--------|
B|-4--4-2-0-----------4--2/4-|
G|---------------------------|
D|---------------------------|
A|---------------------------|
D|---------------------------|


Verse 2:
  G#m              E B      F#       G#m    
           E      B         F#
Kiyoraka na kokoro de bu tsubushitai Yume mo kibou mo suteta jibun no te de
  G#m        E B    F#            G#m       
       E           B       F#
Osoreteita mono nani dattakke sou Ima wa mou wakaranai shiwakaritaku mo nai


Refrain 2:
  E               B            Eb                        G#m
Koko kara mata hi wa nobotte Kono sora ni tsuusetsu ni nanika kanjitemo
F# E                    B                 Eb
O--moide to setsunaku katarao koto ga Nan no yaku ni tatsu tte yuu no


Chorus 2:
B           E       F#       Eb             G#m
I'm feeling myself again I'm feeling better now
  C#     F#     Eb
Taisetsu ni kowashitai
B           E       F#       Eb             G#m
I'm feeling myself againI'm feeling better yeah
    C#        F#
Tsumetai hana wo kerichirasu you ni


Interlude 2: G#m-E-B-F# (x4) then E--Eb--

Guitar 2: solo
e|-7/11--14-11--14---11-----------------------------------|
B|----------------------14-12--------12-11----------------|
G|-----------------------------11h13-------13-11----11h13-|
D|-----------------------------------------------12-------|
A|--------------------------------------------------------|
D|--------------------------------------------------------|
then
e|-------------------|----14-11-|
B|-------------------|----------|
G|-13-11-------------|----------|
D|-------14-13-------|-13-------|
A|-------------16-14-|-13-------|
D|-------------------|-13-------|


(Repeat Chorus 1)


Do Chorus chords:

I'm feeling myself again

I'm feeling myself again
I'm feeling better yeah...
Tsumetai hana wo kerichirasu you ni

end on F#
Tap to rate this tab
 
# A B C D E F G H I J K L M N O P Q R S T U V W X Y Z