Song name
# A B C D E F G H I J K L M N O P Q R S T U V W X Y Z

The Brilliant Green - Brownie The Cat tab

   This tab is used for the intro to the song, but is also played during both choruses, 
the same way, and there are accurate chords already posted for the remainder of the 
so i just wanted to add the intro to go along with those. ((Number One Buri Guri Fan!!!))

Standard Tuning: EADGBE

Play this three Times:

e|--------7-----6----------9-----------7---------6------------------------|
b|--7-----------------7------------7---------7----------------------------|
g|------------------------------------------------------------------------|
d|------------------------------------------------------------------------|
a|------------------------------------------------------------------------|
e|------------------------------------------------------------------------|

Then play this once:
e|--------7-----6----------9-----------7---------6----7-------------------|
b|--7-----------------7------------7---------7----------------------------|
g|------------------------------------------------------------------------|
d|------------------------------------------------------------------------|
a|------------------------------------------------------------------------|
e|------------------------------------------------------------------------|


It's Pretty Simple, good song by a great band Enjoy!!

Questions/Comments>> ianxi@yahoo.com
Tap to rate this tab
 
# A B C D E F G H I J K L M N O P Q R S T U V W X Y Z