Song name
# A B C D E F G H I J K L M N O P Q R S T U V W X Y Z

The Broadview Gutters - Suburban Comfort tab

This is pretty close I think.
-------------0-0--0-0-------------------0-0--0-0-|
-------------5-5--5-5-------------------5-5--5-5-|
-------------5-5--5-5-------------------5-5--5-5-|
-------------5-5--5-5-----------2-------5-5--5-5-|
-----2---------------------3--3---3-3------------|
3--3---3-3---------------------------------------|

-------------0-0--0-0--|
-------------5-5--5-5--|
-------------5-5--5-5--|
-------------5-5--5-5--|
-----2-----------------|
3--3---3-2-3-----------|

There you go

http://www.thebroadviewgutters.com/
Tap to rate this tab
# A B C D E F G H I J K L M N O P Q R S T U V W X Y Z