Song name
# A B C D E F G H I J K L M N O P Q R S T U V W X Y Z

The Broken Family Band - Unhealthy tab

Main Finger-picking Riff

E|----------------------------------------|
B|-----4----------5--------5-----5-----5--|
G|----------------------------------------|
D|----------------------------------------|
A|--2-----2--2/4-----4--------------------|
E|----------------------5-----4-----2-----|

Same Riff Sequenced Higher

E|---------------------------------------------|
B|-----9----------10---------10-----10-----10--|
G|---------------------------------------------|
D|---------------------------------------------|
A|--7-----7--7/9------9------------------------|
E|-----------------------10------9------7------|

Sounds good with or without the slide.

--------------------------------------------------------------------

Chords in Bridge

E|--------------------|
B|--------------------|
G|--8----6----9----7--|
D|--9----7----9----7--|
A|--9----7----7----5--|
E|--7----5------------|
  Bmaj  Amaj  E5  D5

This tab is not guaranteed to be accurate but it's pretty damn close. Funk it up.

Link to song: http://thebrokeninn1.bandcamp.com/track/unhealthy
Tap to rate this tab
# A B C D E F G H I J K L M N O P Q R S T U V W X Y Z