Guitaretab - guitar tabs
Song name
# A B C D E F G H I J K L M N O P Q R S T U V W X Y Z

The Broken Family Band - Happy Days Are Here Again tab

Artist: The Broken Family Band
Song: Happy Days Are Here Again
Album: Welcome Home, Loser (14th February 2005)


Standard tuning: EADGBe

No capo


Chords:
Am    [x02210]
F     [133211]
G     [320033]
C     [x32010]
Cadd9 [x30010]
C/B   [x20010]
E7    [020100]
E7/F  [024100]


Intro:
  
 Guitar 1
 Am
|-----------0-0--0-------0------------0-0--0-------0-------|
|---1-------1-1--1-------1----1-------1-1--1-------1-------|
|-----2---2--------2---2--------2---2--------2---2---------|
|-----0h2----------0h2----------0h2----------0h2-----------|
|-0-------------------------0------------------------------|
|----------------------------------------------------------|


 Guitar 1
|-----------0-0--0-------0------------0-0--0-------0-------|
|---1-------1-1--1-------1----1-------1-1--1-------1-------|
|-----2---2--------2---2--------2---2--------2---2---------| x3
|-----0h2----------0h2----------0h2----------0h2-----------|
|-0-------------------------0------------------------------|
|----------------------------------------------------------|
|Guitar 2 enters                                                          
|-------0---------------0----------0---------------0-0-----|
|-----1-------1-------1----------1-------1-------1---1-----|
|-0h2-----0h2-----0h2--------0h2-----0h2-----0h2-----------| x3
|---------------2--------------------------2---------------|
|-------------------------0--------------------------0-----|
|----------------------------------------------------------|

Verse:

Am                          F
Happy days are here again - wuhoo - wuhoo
Am                                               F
Good times are rollin' down our backs like beats of sweat
                G
So why don't we all go down
    C   Cadd9   C/B
and play in the sun
       E7         E7/F  E7
on the banks of the river
         G               F              Am
We could duck each other under just for fun


 Guitar 1
|-----------0-0--0-------0------------0-0--0-------0-------|
|---1-------1-1--1-------1----1-------1-1--1-------1-------|
|-----2---2--------2---2--------2---2--------2---2---------| x2
|-----0h2----------0h2----------0h2----------0h2-----------|
|-0-------------------------0------------------------------|
|----------------------------------------------------------|
|Guitar 2                                                          
|-------0---------------0----------0---------------0-0-----|
|-----1-------1-------1----------1-------1-------1---1-----|
|-0h2-----0h2-----0h2--------0h2-----0h2-----0h2-----------| x2
|---------------2--------------------------2---------------|
|-------------------------0--------------------------0-----|
|----------------------------------------------------------|


Verse:

Am                            F
Happy days are here again - wouhooooooooo
Am                            F
The sun has got his hat on - wohoo
                G
So why don't we all get down 
    C   Cadd9   C/B
and play in the scum 
       E7         E7/F  E7
on the banks of the river 
         G               F             Am
we could fuck each other over just for fun

[ Tab from: http://www.guitaretab.com/t/the-broken-family-band/81133.html ]
Guitar 1
|-----------0-0--0-------0------------0-0--0-------0-------|
|---1-------1-1--1-------1----1-------1-1--1-------1-------|
|-----2---2--------2---2--------2---2--------2---2---------| x2
|-----0h2----------0h2----------0h2----------0h2-----------|
|-0-------------------------0------------------------------|
|----------------------------------------------------------|
|Guitar 2                                                          
|-------0---------------0----------0---------------0-0-----|
|-----1-------1-------1----------1-------1-------1---1-----|
|-0h2-----0h2-----0h2--------0h2-----0h2-----0h2-----------| x2
|---------------2--------------------------2---------------|
|-------------------------0--------------------------0-----|
|----------------------------------------------------------|
                                   ....wuhuoooooooohihi (2nd time)


Bridge: (listen for strumming patterns)

 Am
|---5--5-5-5-8-8-8-8-7-7-7----5--5-5-5-8-8-8-8-7-7-7-------|
|---5--5-5-5-5-5-5-5-5-5-5----5--5-5-5-5-5-5-5-5-5-5-------|
|---5--5-5-5-5-5-5-5-5-5-5----5--5-5-5-5-5-5-5-5-5-5-------|
|---7--7-7-7-7-7-7-7-7-7-7----7--7-7-7-7-7-7-7-7-7-7-------|
|---7--7-7-7-7-7-7-7-7-7-7----7--7-7-7-7-7-7-7-7-7-7-------|
|-5-5--5-5-5-5-5-5-5-5-5-5--5-5--5-5-5-5-5-5-5-5-5-5-------| \
                                                              \ x2
 F                                                            / 
|---1--1-1-1-1-1-1-1-1-1-1----1--1-1-1-1-1-1-1-1-1-1-------| /
|---1--1-1-1-1-1-1-1-1-1-1----1--1-1-1-1-1-1-1-1-1-1-------|
|---2--2-2-2-2-2-2-2-2-2-2----2--2-2-2-2-2-2-2-2-2-2-------| 
|---3--3-3-3-3-3-3-3-3-3-3----3--3-3-3-3-3-3-3-3-3-3-------| 
|---3--3-3-3-3-3-3-3-3-3-3----3--3-3-3-3-3-3-3-3-3-3-------|
|-1-1--1-1-1-1-1-1-1-1-1-1--1-1--1-1-1-1-1-1-1-1-1-1-------|

  C       G
|-0-hold--3-hold--|
|-1-hold--3-hold--|
|-0-hold--0-hold--|
|-2-hold--0-hold--|
|-3-hold--2-hold--|
|---------3-hold--|

 Am                                                        
|---0--0-0-0-1-1-1-1-0-0-0----0--0-0-0-1-1-1-1-0-0-0-----|  
|---1--1-1-1-1-1-1-1-1-1-1----1--1-1-1-1-1-1-1-1-1-1-----|  
|---2--2-2-2-2-2-2-2-2-2-2----2--2-2-2-2-2-2-2-2-2-2-----|  
|---2--2-2-2-2-2-2-2-2-2-2----2--2-2-2-2-2-2-2-2-2-2-----|  
|-0-0--0-0-0-0-0-0-0-0-0-0--0-0--0-0-0-0-0-0-0-0-0-0-----|  
|--------------------------------------------------------|  

  C          ! ! ! G#
|-0-hold--3--3-3-3-4--|
|-1-hold--3--3-3-3-4--|
|-0-hold--4--4-4-4-5--|
|-2-hold--5--5-5-5-6--|
|-3-hold--5--5-5-5-6--|
|---------3--3-3-3-4--|

 Am-add9
|---8--8-8-8-8-8-8-8-8-8-8--|
|---5--5-5-5-5-5-5-5-5-5-5--|
|---5--5-5-5-5-5-5-5-5-5-5--| x4
|---7--7-7-7-7-7-7-7-7-7-7--|
|---7--7-7-7-7-7-7-7-7-7-7--|
|-5-5--5-5-5-5-5-5-5-5-5-5--|


Verse:

Am(hold)                     F
Happy days are here again - wuhoo - ooooooohohohahah
Am                                                 F
Wave goodbye to all your problems cos' they were just a fad
                  G
And then we could all go down
    C   Cadd9   C/B
and play in the sun
       E7         E7/F  E7
on the banks of the river
   G                     F              Am
We could duck each other under just for fun


Outro:

Guitar 1                                                         
|-----------0-0--0-------0------------0-0--0-------0-------|     |-0-hold-|
|---1-------1-1--1-------1----1-------1-1--1-------1-------|     |-1-hold-|
|-----2---2--------2---2--------2---2--------2---2---------| x2  |-2-hold-|
|-----0h2----------0h2----------0h2----------0h2-----------|     |-2-hold-|
|-0-------------------------0------------------------------|     |-0-hold-|
|----------------------------------------------------------|     |--------|
|Guitar 2                                                          
|-------0---------------0----------0---------------0-0-----|     |-0-hold-|
|-----1-------1-------1----------1-------1-------1---1-----|     |-1-hold-|
|-0h2-----0h2-----0h2--------0h2-----0h2-----0h2-----------| x2  |-2-hold-|
|---------------2--------------------------2---------------|     |-2-hold-|
|-------------------------0--------------------------0-----|     |-0-hold-|
|----------------------------------------------------------|     |--------|



[kullsyre]
Related for Happy Days Are Here Again tab
Happy Days Are Here Again chords by The Broken Family Band