Song name
# A B C D E F G H I J K L M N O P Q R S T U V W X Y Z

The Brothers Johnson - Get The Funk Out Of My Face tab

ok this is a very rough draft but here is what i am hearing.

intro just kind of listen to how he is struming.
|12-12--12--12--12--12-12-|12-12--12--12--12--12-12-|
|12-12--12--12--12--12-12-|12-12--12--12--12--12-12-|
|-------------------------|-------------------------|
|-------------------------|-------------------------|
|-------------------------|-------------------------|
|-------------------------|-------------------------|


idk if this is right but it sounds close to the solo.  this is the first half. idk the 
half but it is similar to the first half.

|---------------------------------------------------------------------|
|---------------------------------------------------------------------|
|---------------------------------------------------------------------|
|17-15-17----------------------------15-15-17-------------------------|
|---------13----------------13----17----------13----17-13-15-13----13-|
|------------15-13-15-13-15----15----------------15-------------15----|

email me at a.osonitsch@gmail.com if this helped you.
Alex
Tap to rate this tab
 
# A B C D E F G H I J K L M N O P Q R S T U V W X Y Z