Song name
# A B C D E F G H I J K L M N O P Q R S T U V W X Y Z

The Browns - American Werewolf In Calgary tab

sup everybody this is stiffius maximus writing another tab to a great song. American
Werewolf in Calagary might sound familiar if you play video games since it is feautured
on Tony Hawk Underground. Have fun!

intro
          x3
|----------|-----------|\
|----------|-----------| \
|----------|-----------|  \
|-5-555555-|-----------|  /x2
|-3-333333-|-777-5-55--| /
|----------|-555-3-33--|/

verse                                                    x2
|---------------------------------------------------------|
|---------------------------------------------------------|
|---------------------------------------------------------|
|-5-55555555555-------------------------------------------|
|-3-33333333333-7-77777777777-5-55555555555-3-3-33-5-5-55-|
|---------------5-55555555555-3-33333333333-1-1-11-3-3-33-|

bridge    x3
|----------|-----------|\
|----------|-----------| \
|----------|-----------|  \
|-5-555555-|-----------|  /x2
|-3-333333-|-777-5-55--| /
|----------|-555-3-33--|/

verse 2                                                  x2
|---------------------------------------------------------|
|---------------------------------------------------------|
|---------------------------------------------------------|
|-5-55555555555-------------------------------------------|
|-3-33333333333-7-77777777777-5-55555555555-3-3-33-5-5-55-|
|---------------5-55555555555-3-33333333333-1-1-11-3-3-33-|

Chorus                                                   x2
|---------------------------------------------------------|
|---------------------------------------------------------|
|---------------------------------------------------------|
|---------------------------------------------------------|
|---------------------------------------------------------|
|---------------------------------------------------------|

verse 3                                                  x2
|---------------------------------------------------------|
|---------------------------------------------------------|
|---------------------------------------------------------|
|-5-55555555555-------------------------------------------|
|-3-33333333333-7-77777777777-5-55555555555-3-3-33-5-5-55-|
|---------------5-55555555555-3-33333333333-1-1-11-3-3-33-|

Chorus                                  x3        x2        
|-----------------------------|----------|-x-x-x-x-|\
|-----------------------------|----------|-x-x-x-x-| \
|-----------------------------|----------|-x-x-x-x-|  \
|-----------------------------|-5-555555-|-x-x-x-x-|  /x2
|-7-77777777777-5-55555555555-|-3-333333-|-x-x-x-x-| /
|-5-55555555555-3-33333333333-|----------|-x-x-x-x-|/

outro     x3
|----------|-----------|\
|----------|-----------| \
|----------|-----------|  \
|-5-555555-|-----------|  /x2
|-3-333333-|-777-5-55--| /
|----------|-555-3-33--|/

|----------------|
|----------------|
|----------------|
|----------------|
|-5--5--5------5-|
|-3--3--3------3-|

http://www.thebrownsmania.com/
Tap to rate this tab
 
# A B C D E F G H I J K L M N O P Q R S T U V W X Y Z