Guitaretab - guitar tabs
Song name
# A B C D E F G H I J K L M N O P Q R S T U V W X Y Z

The Bruisers - Iron Chin tab

E|--------------------|
B|--------------------|
G|-----------5555-7777|
D|-7777-2222-5555-7777|4X
A|-7777-2222-3333-5555|
E|-5555-0000----------|
[ Tab from: http://www.guitaretab.com/t/the-bruisers/74984.html ]
E----7-----7-----7-----7-----7-----7-----------------------------------------|
B----7-----7-----7-----7-----7-----7-----------------------------------------|
G9b10--9b10--9b10--9b10--9b10--9b10--9b11-9-7--7-9-9b13-9-7--9-9b11-9-7--7-9-|
D----------------------------------------------9------------9-----------9----|
A----------------------------------------------------------------------------|
E----------------------------------------------------------------------------|

E----------------------------------------------|
B----------------------------------------------|
G-7b9-7-5--5-7---11/12-12-12-9--11/12-12-12-9--|
D---------7------------------------------------|
A----------------------------------------------|
E----------------------------------------------|
Related for Iron Chin tab
Advertisement will be closed in 10 seconds