The Bullet - Relapse tab

E |-----------2--------2-------|-----2--------2-------------|
B |--------0-----0--------0----|--------0--------0----------|
G |-----0-----------0----------|--0--------0--------0-------|
D |--2-------------------------|----------------------------|
A |----------------------------|----------------------------|
E |----------------------------|----------------------------|

     1  +  2  +  3  +  4  +       1  +  2  +  3  +  4  +

-----------2--------2-------|-----2--------2-------------||
--------0-----0--------0----|--------0--------0----------||
-----0-----------0----------|--0--------0--------0-------||x2
--0-------------------------|----------------------------||
----------------------------|----------------------------||
----------------------------|----------------------------||

  1  +  2  +  3  +  4  +       1  +  2  +  3  +  4  +


e                    D
i made somebody feel lonely today
e                         D
'cause i know where to be found
C			D
and i'm waiting for the enemy to be my friend
C                     D
waiting 'til he turns around

e                    D
i've been lying here beside myself for days and days
e                         D
sleeping soundless to the way
C                         D
and i know you know that we know that you're alone
C                      D
and i know that you're afraid


chorus:
A                    E
i believe that we are no one
G                       D
someone else we used to know
A		    E
i relapse until i'm dreamin'
G                       D
of the place we used to go

G   D    G    D
(solo)


e                    D
i made somebody feel ugly today
e                       D
'cause i know we're not around
C                                D
and i'm waiting for the enemy to take my hand
C                         D
waiting 'til i'm underground


chorus
A                      E
i believe that we are no one
G                        D
someone else we used to know
A                   E
i relapse until im dreamin'
G                       D
of the place we used to go

A                        E
i believe that we've been enlightened
G                                   D
just close your eyes and watch the show
A                       E
we relapse until we're dreamin'
G                        D
of the place we used to go

G    D    G    D
(solo)
Tap to rate this tab
 
# A B C D E F G H I J K L M N O P Q R S T U V W X Y Z