Song name
# A B C D E F G H I J K L M N O P Q R S T U V W X Y Z

The Bunny The Bear - First Met You chords

Highlighted       Show chord diagrams
The Bunny The Bear
First Met You
From "Food Chain" - 2014
Chords by blackoctober119

Verse:

D             A                Bm       G
Well you keep breathing with uncertainty (But still I stay here)

D           A                Bm      G
And I won't budge until your heart explodes (From all of your fears)

D              A                  Bm             G
Your eyes are glossed, I can't be trusted (I'm a menace, just a vice)

D           A               Bm             G
And I can't sleep without a drink (Or walk away when there's a fight)


Chorus:

D A     Bm         G
I swear we'll pull through

D                 A          Bm             G
Trust me like you did when I first touched, first met you

D A     Bm         G
I swear we'll pull through

D                 A          Bm             G
Trust me like you did when i first touched, first met you


Pre-verse:

D - A - Bm - G

D - A - Bm - G

Riff (in standard tuning):

e|----------------------------------------------------------|
B|----------------------------------------------------------|
G|--14-14-14-14-14-14-14-14--12-12-12--11-11-11--9-9-9-9-9--|
D|--x--x--x--x--x--x--x--x---x--x--x---x--x--x---x-x-x-x-x--|
A|--12-12-12-12-12-12-12-12--10-10-10--9--9--9---7-7-7-7-7--|
E|----------------------------------------------------------|

e|----------------------------------------|
B|----------------------------------------|
G|--12-12-12--11-11-11--9--7~---7/9--7/9--|
D|--x--x--x---x--x--x---x--x----x-x--x-x--|
A|--10-10-10--9--9--9---7--5~---5/7--5/7--|
E|----------------------------------------|


Verse:

D                           A
I still can't forget how my heart stopped

         Bm                        G
When our bodies first touched (Now I can't lay)

D                           A
I still can't forget how my heart stopped

         Bm                        G
When our bodies first touched (Now I can't lay with you)


Pre-chorus:

D A     Bm         G
I swear we'll pull through

D                 A          Bm             G
Trust me like you did when I first touched, first met you


Chorus:

   Bm         G
...We'll pull through

D                 A          Bm             G
Trust me like you did when I first touched, first met you

D A     Bm         G
I swear we'll pull through

D                 A          Bm             G
Trust me like you did when I first touched, first met you


Bridge:

D A     Bm         G
I swear we'll pull through (We'll pull through)

D A     Bm         G
I swear we'll pull through (First met you)

I still can't forget how my heart stopped


D - A - Bm - G

D - A - Bm - G
               First met you


Chorus:

D A     Bm         G
I swear we'll pull through

D A     Bm         G
I swear we'll pull through

First met you
Tap to rate this tab
# A B C D E F G H I J K L M N O P Q R S T U V W X Y Z