Song name
# A B C D E F G H I J K L M N O P Q R S T U V W X Y Z

The Cab - This City Is Contagious tab

Help us improve GuitareTab! Take a short survey!
Title:ThisCityIsContagious
Artist:TheCab
Album:WhisperWar
Year:2008

This is 100% right except the intro/ bridge.
I just put it how i play it.
Besides that, all the chords are all correct.
Screw the other tabs.  Mines right!
lol


Intro:
E--10--10--10--10--12--12--14--14--10--10--10--10--9-10-10--10--9-----|
B----10--10--10--10--10--10--10--10--10--10--10--10-------10--10--10--|
G---------------------------------------------------------------------|
D---------------------------------------------------------------------|
A---------------------------------------------------------------------|
D---------------------------------------------------------------------|


Verse:
E-------------------------------------------|
B-------------------------------------------|
G--7-7-----6-6---4-4---2-2------------------|
D--7-7-----7-7---4-4---2-2-----5-5--5h7--0--|x4
A--5-5-----4-4---2-2---0-0-----5-5--5h7--0--|
D------------------------------5-5--5h7--0--|


PreChorus:
E---------------|
B---------------|
G---------------|
D--5------7-----|
A--5-x8---7-x8--|
D--5------7-----|


Chorus:
E--------------------------|
B--------------------------|
G--7-----------------------|
D--7-x4--5-----9-----7-----|x2
A--5-----5-x4--9-x4--7-x4--|
D--------5-----9-----7-----|

E--------------------------------|
B--------------------------------|
G--------------------------------|
D--5-----4-----7-----9-----7-----|
A--5-x4--4-x4--7-x4--9-x2--7-x2--|
D--5-----4-----7-----9-----7-----|

E-----------------|
B-----------------|
G-----------------|
D--5-----7-----7--|
A--5-x8--7-x4--7--|
D--5-----7-----7--|

Verse:
E-------------------------------------------|
B-------------------------------------------|
G--7-7-----6-6---4-4---2-2------------------|
D--7-7-----7-7---4-4---2-2-----5-5--5h7--0--|x5
A--5-5-----4-4---2-2---0-0-----5-5--5h7--0--|
D------------------------------5-5--5h7--0--|


PreChorus:
E---------------|
B---------------|
G---------------|
D--5------7-----|
A--5-x8---7-x8--|
D--5------7-----|


Chorus:
E--------------------------|
B--------------------------|
G--7-----------------------|
D--7-x4--5-----9-----7-----|x2
A--5-----5-x4--9-x4--7-x4--|
D--------5-----9-----7-----|

E--------------------------------|
B--------------------------------|
G--------------------------------|
D--5-----4-----7-----9-----7-----|
A--5-x4--4-x4--7-x4--9-x2--7-x2--|
D--5-----4-----7-----9-----7-----|

E-----------------|
B-----------------|
G-----------------|
D--5-----7-----7--|
A--5-x8--7-x4--7--|
D--5-----7-----7--|


Bridge:
E--10--10--10--10--12--12--14--14--10--10--10--10--9-10-10--10--9-----|
B----10--10--10--10--10--10--10--10--10--10--10--10-------10--10--10--|
G---------------------------------------------------------------------|
D---------------------------------------------------------------------|xAlot
A---------------------------------------------------------------------|
D---------------------------------------------------------------------|

TheChordPlayedThroughOutTheBridge:
E-----|
B-----|
G--7--|
D--7--|
A--5--|
D-----|

E-------------------------------------------------------------|
B-------------------------------------------------------------|
G-------------------------------------------------------------|
D--9~-9~---9------7~-7~---7------5~-5~---5------7~-7~---7-----|
A--9~-9~---9-x4---7~-7~---7-x4---5~-5~---5-x4---7~-7~---7-x4--|x2
D--9~-9~---9------7~-7~---7------5~-5~---5------7~-7~---7-----|


Chorus:
E--------------------------|
B--------------------------|
G--7-----------------------|
D--7-x4--5-----9-----7-----|x2
A--5-----5-x4--9-x4--7-x4--|
D--------5-----9-----7-----|

E--------------------------------|
B--------------------------------|
G--------------------------------|
D--5-----4-----7-----9-----7-----|
A--5-x4--4-x4--7-x4--9-x2--7-x2--|
D--5-----4-----7-----9-----7-----|

E-----------------|
B-----------------|
G-----------------|
D--5-----7-----7--|
A--5-x8--7-x4--7--|
D--5-----7-----7--|
Related for This City Is Contagious tab