Song name
# A B C D E F G H I J K L M N O P Q R S T U V W X Y Z

The Cab - High Hopes In Velvet tab

----------5-6-5-6-5h6p5---------------5--3---3---5/8-6~-|
--3--3h5h6-------------6-5~--3--5--6-------6------------|
--------------------------------------------------------|
--------------------------------------------------------|
--------------------------------------------------------|
--------------------------------------------------------|

----------------------------------------------------------------|
-5h6-5-5h6-5----------------------------------------------------|
----5-----5-5/7~--------------------------------------6-7-8-7-9-|
---------------------------------------5-5h7p5-5-7~--7-----7----|
-----------------4h5p4-5-7-8-7-8--5-7-8-------8-----------------|
----------------------------------------------------------------|

-----------------------8--------------------------------------------|
--------------11-10-11---10-----------------------------------------|
-10p9p7-7h9h10--------------10----10-12-12^-12-10-12~---12^--10-----|
-------------------------------12-----------------------------12-11-|
--------------------------------------------------------------------|
--------------------------------------------------------------------|
Tap to rate this tab
 
# A B C D E F G H I J K L M N O P Q R S T U V W X Y Z