Guitaretab - guitar tabs
Song name
# A B C D E F G H I J K L M N O P Q R S T U V W X Y Z

The Call - Aasman tab

----------------------------------------------------------------------------
			   Aasman - The Call
----------------------------------------------------------------------------

Tabbed by:ahsen khan
Email:rocking_lead_guitar@hotmail.com

Tuning:drop D

well the last tab i sent was the rough version of it this is the final version and has 
modifications and also has the intro so here it is the final version

Intro:

e|-------------------------------------------------------------------------|
B|---1-1---1-1-1-1---1-1---------------------------------------------------|
G|--0-----0---------0------------------------------------------------------|
D|----2-----2---2-----2--2-------------------------------------------------|
A|-0-----0---------0-----0-------------------------------------------------|
D|-------------------------------------------------------------------------|

Repeat this once and twice and then the palm mute comes in at the second time
   v v^vv v^vv v v^vv v^vv
e|-------------------------------------------------------------------------|
B|-------------------------------------------------------------------------|
G|-------------------------------------------------------------------------|
D|-------------------------------------------------------------------------|
A|-6-6666-6666-6-6666-6666-------------------------------------------------|
D|-4-4444-4444-4-4444-4444-------------------------------------------------|

Repeat this twice

Chords for the Verse:

D C A#

Chords for the verse 2 when he sings (hey yeh chamannnnnn hi apna makan):

A A#

Bulid Up:

G5

Chords for the Chorus:

Dm Fmaj A# Cmaj

Solo:

e|-------------------------------------------------------------------------|
B|-3-5-3-5-6-6-5-5-3---1-3-1-5-3-6-5-35-35-35------------------------------|
G|-------------------------------------------------------------------------|
D|-------------------------------------------------------------------------|
A|-------------------------------------------------------------------------|
D|-------------------------------------------------------------------------|
           play this 2 times
[ Tab from: http://www.guitaretab.com/t/the-call/101050.html ]
e|-6-4---------------------------------------------------------------------|
B|----6-5-3-5-6-5--53-53-53-53---------------------------------------------|
G|-------------------------------------------------------------------------|
D|-------------------------------------------------------------------------|
A|-------------------------------------------------------------------------|
D|-------------------------------------------------------------------------|
            play this two times with wah wah open

e|--------------------------------------------------------------------16b18|
B|-66656-88868-101010810-1313131013-1515151315-17-15-17-15-17-15-17-15-----|
G|-------------------------------------------------------------------------|
D|-------------------------------------------------------------------------|
A|-------------------------------------------------------------------------|
D|-------------------------------------------------------------------------|

Chorus 2:

e|-------------------------------------------------------------------------|
B|-------------------------------------------------------------------------|
G|-------------------------------------------------------------------------|
D|-7---5---9---7---3---7---9---7-------------------------------------------|
A|-7---5---9---7---3---7---9---7-------------------------------------------|
D|-5---3---7---5---5---5---7---5-------------------------------------------|

play each chord 5 times strum them according to the rythm of the song and the chord is 
7 times that mean 14 strokes in paris up and down strokes then the scratch comes

okay there you go final version is ready and here is the pattern of the song:

Intro     x1
verse     x1
verse 2   x1
Build up  x1
Chorus    x2 (i mean play the chords x2)
verse     x1 (during the verse he also plays the
             intro in some effect in the back ground)
verse 2   x1
Build up  x1
Chorus    x2
Solo      (nice solo i like the use of wah wah)
Chorus 2  x1
Chorus    x4

well there you go have fun with it later peace =P

| /  slide up
| \  slide down
| h  hammer-on
| p  pull-off
| ~  vibrato
| +  harmonic
| x  Mute note
============================================================================
Related for Aasman tab
×
Aasman