Song name
# A B C D E F G H I J K L M N O P Q R S T U V W X Y Z

The Call - Nishaan tab

This is perfect!!! Anywayz, the e. and s.'s are just the timings. like eighth and 
And da thing is on normal tuning (EADGBe)
Intro
 4/4
  Gtr I
  E.. s.. s.. S.. S.. S.. S.. E..   E.. E. S.. S.. S E S.. S..
|---------------------------------|--------------------3-------|
|-------------1-------------------|----------------0h1-----1---|
|---------0-------0-------0-------|------------2---------------|
|-----3---------------3-----------|--------2-------------------|
|-3---------------------------3---|-2---0----------------------|
|---------------------------------|----------------------------|


  S.. S.. S.. S.. E. S.. S.. S.. S..   S.. S.. S.. S.. S.. S.. E.. E.   E. Q  e. E
|-----0------------------------------|-0-----------0------------------|----3--------|
|---------1------------------0h==1---|-----1-------1p==0--------------|-3-----3-----|
|-2-----------2----------0-----------|---------0---0-------0----------|----------0--|
|--------------------2---------------|--------------------------------|-------------|
|-----------------2------------------|-----------------------------2--|-------------|
|------------------------------------|-------------------------3------|-------------|


  E.. s.. s.. S.. S.. S.. S.. E..   E.. E. S.. S.. S E S.. S..
|---------------------------------|--------------------3-------|
|-------------1-------------------|----------------0h1-----1---|
|---------0-------0-------0-------|------------2---------------|
|-----3---------------3-----------|--------2-------------------|
|-3---------------------------3---|-2---0----------------------|
|---------------------------------|----------------------------|


  S.. S.. S.. S.. E. S.. S.. S.. S..   S.. S.. S.. S.. S.. S.. E.. E.   E. Q  e. E
|-----0------------------------------|-0-----------0------------------|----3---------|
|---------1------------------0h==1---|-----1-------1p==0--------------|-3-----3------|
|-2-----------2----------0-----------|---------0---0-------0----------|----------0---|
|--------------------2---------------|--------------------------------|--------------|
|-----------------2------------------|-----------------------------2--|--------------|
|------------------------------------|-------------------------3------|--------------|
Tap to rate this tab
# A B C D E F G H I J K L M N O P Q R S T U V W X Y Z